» » »

Kasey Chambers - Not Pretty Enough? Tabs

Artists:  A B C D E F G H I J K L M N O P Q R S T U V W X Y Z # 

Not Pretty Enough? Tabs

(ver. 2) Click to play this song!
Kasey Chambers
 Rating:
4/5 (4 votes)


 Not Pretty Enough? lessons Tabs too difficult? Try these video lessons and learn fast
 
                Hello fellow guitarists! I created this tab because the other versions were incorrect 
the beginning arpegios... If it isn't completely correct, it still sounds good, and it is 
easy to play! Enjoy!

-------------------------------------------------------------------------------
                             NOT PRETTY ENOUGH - Kasey Chambers
-------------------------------------------------------------------------------


Tuning: Standard, CAPO ON 4TH FRET!!!


   Am I not pretty enough?                           Is my heart too broken?
e|------------------------------0--------------------------------------------|
B|------------3--------------3-----0--------------3--------------1-----------|
G|------0--------------0--------------------0--------------------------------|
D|---------0--------------0--------------------0-----------0-----------------|
A|------------------------------------------------------3-----3--------------|
E|---3--------------2--------------------0-----------------------------------|

   Do I cry too much?                                   Am I too outspoken?
e|------------------------------0--------------------------------------------|
B|------------3--------------3-----0--------------3-----------------1--------|
G|------0--------------0--------------------0-----------------0--------------|
D|---------0--------------0--------------------0-----------2-----2-----------|
A|------------------------------------------------------3--------------------|
E|---3--------------2--------------------0-----------------------------------|

   Do I make you laugh?                              Should I try it harder?
e|------------------------------0--------------------------------------------|
B|------------3--------------3-----0--------------3-----------------1--------|
G|------0--------------0--------------------0-----------------0--------------|
D|---------0--------------0--------------------0-----------2-----2-----------|
A|------------------------------------------------------3--------------------|
E|---3--------------2--------------------0-----------------------------------|

   Why do you see right through me?
e|-----------------------------------------0---------------------------------|
B|------------3--------------3-------------1---------------------------------|
G|------0--------------0-------------------0---------------------------------|
D|---------0--------------0----------------2---------------------------------|
A|-----------------------------------------3---------------------------------|
E|---3--------------2----------------------0---------------------------------|


(The rest sounds better strummed, because thats when the song picks up. If you arpegio 
whole thing, it will get boring. Trust me on this...)


Verse 1:

G       D          Em       C
I live, I breathe, I let it rain on me
G        D       Em         C
I sleep, I wake, I try hard not to break
G        D       Em          C
I crave, I love, I've waited long enough
G        D        Em
I try as hard as I can.

Chorous:

G        D
Am I not pretty enough?
Em       C
Is my heart too broken?
G        D
Do I cry too much?
Em       C
Am I too outspoken?
G        D
Dont I make you laugh?
Em       C
Should I try it harder?
G          D          Em
Why do you see right through me?

Verse 2:

G        D       Em        C
I laugh, I feel, I make believe its real,
G       D         Em        C
I fall, I freeze, I pray down on my knees,
G       D        Em        C
I hope, I stand, I take it like a man,
G        D        Em
I try as hard as I can

Chorous:

G        D
Am I not pretty enough?
Em       C
Is my heart too broken?
G        D
Do I cry too much?
Em       C
Am I too outspoken?
G        D
Dont I make you laugh?
Em       C
Should I try it harder?
G          D          Em
Why do you see right through me?

Outro:
G               D               Em             C
Why do you see, why do you see, why do you see right through me?
G               D               Em             C
Why do you see, why do you see, why do you see right through me?
G               D               Em             C
Why do you see, why do you see, why do you see right through me?

G               D
Why do you see, why do you see,
           Em
Why do you see right through me?
            
Submit corrections



        Not Pretty Enough? lessons Hard to play? Try these video lessons and learn fast Not Pretty Enough? lessons
        
↑ Back to top | Tablatures and chords for acoustic guitar and electric guitar, ukulele, drums are parodies/interpretations of the original songs. You may use it for private study, scholarship, research or language learning purposes only