Home » K » Kasabian »

Kasabian - Velociraptor Tabs

Artists:  A B C D E F G H I J K L M N O P Q R S T U V W X Y Z # 

Velociraptor Tabs

(ver. 2) Click to play this song!
Kasabian
-------------------------------------------------------------------------------
                             VELOCIRAPTOR! - Kasabian
-------------------------------------------------------------------------------

Tuning: Stamdard

Verse:
e|--------------------------------------------------------------------------|
B|--------------------------------------------------------------------------|
G|--4--4---4-4-4-4-4----4--4---4-4-4-4-4---4--4---4-4-4-4-4-----------------|
D|--4--4---4-4-4-4-4----4--4---4-4-4-4-4---4--4---4-4-4-4-4--4-4--7-7-------|
A|--2--2---2-2-3-2-0----2--2---2-2-3-2-0---2--2---2-2-3-2-0--4-4--5-5-------|
E|-----------------------------------------------------------2-2------------|

Chorus: 
  B
Velociraptor! He's gonna bite ya,
                               F#      D
He's gonna kill ya, he's gonna eat ya,
                 B
You're on the outskirts of his kingdom,
                         F#      D
So keep your head down, Veloci-Velociraptor!  

Chorus riff:
e|-14-14-14-14p11--11-11-12------14-14-14-14p11-----11-11-11-9-11-----------|
B|--------------------------12----------------------------------------------|
G|--------------------------------------------------------------------------|
D|--------------------------------------------------------------------------|
A|--------------------------------------------------------------------------|
E|--------------------------------------------------------------------------|

Break: 
B G E 
       There's nothing to it, there's nothing to it, man!

C                                  B
And now you're lying there and everyone's asleep,
C                            E
He just wants to suck your bloooood aaaaaghghg aaaaaaghghagh


************************************

| /   slide up
| \   slide down
| h   hammer-on
| p   pull-off
| ~   vibrato
| +   harmonic
| x   Mute note
| b   Bend
| pb  Pre-bend
| br  Bend release
| pbr Pre-bend release
| brb Bend release bend

************************************
            
Submit corrections

↑ Back to top | Tablatures and chords for acoustic guitar and electric guitar, ukulele, drums are parodies/interpretations of the original songs. You may use it for private study, scholarship, research or language learning purposes only