» » »

Kasabian - Me Plus One Tabs

Artists:  A B C D E F G H I J K L M N O P Q R S T U V W X Y Z # 

Me Plus One Tabs

(ver. 2) Click to play this song!
Kasabian
 Rating:
4/5 (4 votes)
                -------------------------------------------------------------------------------
                             Me Plus One - Kasabian
-------------------------------------------------------------------------------

Tuning: Standard

Hey guys. This tab will be a bit confusing...

Intro Listen to song for timing

e|------------------------------------|
B|------10-10------10-10--------------|
G|--9-9-9--9--9-9--9--9---------------|
D|--7-7-7--7--7-7--7--7---------------|
A|------------------------------------|
E|------------------------------------|

Verses...(aprox of course =])

e|-----------------------------------------------------------------|
B|-------------------------8-8-8--13-13-13-12-12-12----------------|
G|--9-9-9-9-9-9-9-9-9-9-9--7-7-7--12-12-12-11-11-11-9--------------|
D|--7-7-7-7-7-7-7-7-7-7-7--5-5-5--10-10-10-9--9--9--7-------x3-----|
A|-----------------------------------------------------------------|
E|-----------------------------------------------------------------|

And

e|-----------------------------------------------------------------|
B|-------------------------8-8-8--13-13-13-15-15-15----------------|
G|--9-9-9-9-9-9-9-9-9-9-9--7-7-7--12-12-12-14-14-14-9--------------|
D|--7-7-7-7-7-7-7-7-7-7-7--5-5-5--10-10-10-12-12-12-7--------------|
A|-----------------------------------------------------------------|
E|-----------------------------------------------------------------|

Chorus

e|------------------------------------|
B|--------12-12-12-14-14-14-12-10-----|
G|--------11-11-11-13-13-13-11-9------|
D|-12-11--9--9--9--11-11-11-9--7------|
A|-10-9-------------------------------|
E|------------------------------------|

Haven’t got a clue what happens to the acoustic guitar after 
the strings come in. I’d imagine it plays the chorus bit again,
but it’s completely drowned out by the violins etc.
            
Submit corrections

↑ Back to top | Tablatures and chords for acoustic guitar and electric guitar, ukulele, drums are parodies/interpretations of the original songs. You may use it for private study, scholarship, research or language learning purposes only