» » »

Kasabian - Empire Bass

Artists:  A B C D E F G H I J K L M N O P Q R S T U V W X Y Z # 

Empire Bass

(ver. 1) Click to play this song!
Kasabian
 Rating:
3.6/5 (5 votes)
                Band: Kasabian
Bassist: Chris Edwards
Tuning: Standard

This is more or less combination of other tabs because they are very
similar to this tab so thanks to other guys for their job.

Verse (You can use capo to ease playing just like Chris):

G|--------------------------------------------|
D|2-5-(x16 both)------------------------------|
A|---------------2-5-(x4 both)----------------|
E|-----------------------------2-5-(x4 both)--| x3

Chorus:

G|--------------------------------|
D|2-22-2/(5)-55-5-----------------|
A|----------------2-22-2/(5)-55-5-|
E|--------------------------------| x8

Verse:

G|--------------------------------------------|
D|2-5-(x16 both)------------------------------|
A|---------------2-5-(x4 both)----------------|
E|-----------------------------2-5-(x4 both)--| x2

Chorus:

G|--------------------------------|
D|2-22-2/(5)-55-5-----------------|
A|----------------2-22-2/(5)-55-5-|
E|--------------------------------| x8

Bridge (here's something like this):

G|-------------| Use Your own variations
D|2-22-22-22-2-|      if You want
A|-------------|
E|-------------|

Chorus:

G|--------------------------------|
D|2-22-2/(5)-55-5-----------------|
A|----------------2-22-2/(5)-55-5-|
E|--------------------------------| Play this till the end of song

/  slide up
\  slide down
h  hammer-on
p  pull-off
~  let ring
() ghost note
            
Submit corrections

↑ Back to top | Tablatures and chords for acoustic guitar and electric guitar, ukulele, drums are parodies/interpretations of the original songs. You may use it for private study, scholarship, research or language learning purposes only