Home » K » Karnivool »

Karnivool - Themata Tabs

Artists:  A B C D E F G H I J K L M N O P Q R S T U V W X Y Z # 

Themata Tabs

(ver. 2) Click to play this song!
Karnivool
Karnivool - Themata

This tab is by no means perfect. But it's damn near close enough. and at least 
it's in the right tuning ^.^

Tuning (low to high): B F# B G B e

Legend: T = tap
	\ = slide down
	/ = slide up
	h = hammer on
	p = pull off
	. = palm mute

	|o---o|
	|-----|
	|o---o| = repeat signs


E |-------------------------------|
B |o-4--4---5-------4--4---5---7-o|
G |--4--4---4-------4--4---4---6--|
B |-------------------------------|
F#|o-----------------------------o|
B |-------------------------------|
  |                               |
E |------------------------------ |
B |o-----------------------------o|
G |-------------------------------|
B |--12-12--10------12-12--10--3--|
F#|o-12-12--10------12-12--10--3-o|
B |--12-12--10------12-12--10--3--|



   After each note not immediately followed by a pull off or slide,
   pull off to open. Listen to Drew plays it to get it.
     T  T  T   T            T  T  T   T     T   T             T  T  T
E |--------------------------------------------------------------------|
B |--------------------------------------------------------------------|
G |--------------------------------------------------------------------|
B |--12-12-13--12p10h12/17--13-16-12--10/16-17p-13\12--/19p17-16-16-16-|
F#|--------------------------------------------------------------------|
B |--------------------------------------------------------------------|
    
     T  T      T         T     T   T      T  T  T  T
E |---------------------------------------------------------|
B |---------------------------------------------------------|
G |---------------------------------------------------------|
B |--10-13p12--10h12/17--13p12-16--12\10--16-17-16-13\12\10-|
F#|---------------------------------------------------------|
B |---------------------------------------------------------|


E |-------------------------------------------------------------|
B |----------------------------------------------------5--------|
G |--------------------4---------------------------2h5---5p2----|
B |------4h7-------4h7---7-4-----5h7h8p7p5-------5-----------7--|
F#|--5h6-------5h6-----------5-6-----------3h5h6----------------|
B |-------------------------------------------------------------| x3

E |-------------------------------------------------------------|
B |-------------------------------------------------------------|
G |--------------------4---------------------------2h5p2--------|
B |------4h7-------4h7---7-4-----5h7h8p7p5-------5-------7-5----|
F#|--5h6-------5h6-----------5-6-----------3h5h6-------------6--|
B |-------------------------------------------------------------|

E |-----------------------|
B |-----------------------|
G |-----------------------|
B |--7---7---7---7---7--7-|
F#|--5---5---5---5---5--5-|
B |-----------------------|


  
Verse:

   quiet
E |-----------------------------------------------------------------|
B |o----------------------------------------------------------------|
G |-----------------------------------------------------------------|
B |-----------------------------------------------------------------|
F#|o5-5-5-5-5-5-3h5-5-5-5-5-5-5-3h5-5-5-5-5-5-5-5-6-6-6-6-3-3-3-6p5-|
B |-----------------------------------------------------------------|
      . . . . .     . . . . . .     . . . . . . .   . . .   . .      

E |-----------------------------------------------------------------|
B |----------------------------------------------------------------o|
G |-----------------------------------------------------------------|
B |-----------------------------------------------------------------|
F#|-5-5-5-5-5-5-3h5-5-5-5-5-5-5-3h5-5-5-5-6-6-6-6-6-3-3-3-3-6-6-6-5o|
B |-----------------------------------------------------------------| play 4 times
    . . . . . .     . . . . . .     <<<<<<<<<<<<<<<<<<<<<<<<<<<<<<<
				  gradually release mute and get louder

E |-----------------------------------------------------------------|
B |-----------------------------------------------------------------|
G |-----------------------------------------------------------------|
B |-----------------------------------------------------------------|
F#|-5-5-5-5-5-5-3h5-5-5-5-5-5-5-3h5-5-5-5-5-5-5-5-6-6-6-6-3-3-3-----|
B |-------------------------------------------------------------1p0-|
      . . . . .     . . . . . .     . . . . . . .   . . .   . .      

E |-----------------------------------------------------------------|
B |-----------------------------------------------------------------|
G |-----------------------------------------------------------------|
B |-----------------------------------------------------------------|
F#|-5-5-5-5-5-5-3h5-5-5-5-5-5-5-3h5-5-5-5-6-6-6-6-6-3-3-3-3-6-6-6-5-|
B |-----------------------------------------------------------------|
    . . . . . .     . . . . . .     <<<<<<<<<<<<<<<<<<<<<<<<<<<<<<<

  PreChorus:
E |-------------------------------------------------------------|
B |----------------------------------------------------5--------|
G |--------------------4---------------------------2h5---5p2----|
B |------4h7-------4h7---7-4-----5h7h8p7p5-------5-----------7--|
F#|--5h6-------5h6-----------5/6-----------3h5h6----------------|
B |-------------------------------------------------------------|

E |-------------------------------------------------------------|
B |-------------------------------------------------------------|
G |--------------------4---------------------------2h5p2--------|
B |------4h7-------4h7---7-4-----5h7h8p7p5-------5-------7-5----|
F#|--5h6-------5h6-----------5/6-----------3h5h6-------------6--|
B |-------------------------------------------------------------|

E |-----------------------|
B |-----------------------|
G |-----------------------|
B |--7---7---7---7---7--7-|
F#|--5---5---5---5---5--5-|
B |-----------------------|


 
 Chorus:
   Only the 'accented' strums are written below. listen for the timing.
   figure the rest out yourself.
E |--------------------------------------------------------------|
B |--------------------------------------------------------------|
G |--------------------------------------------------------------|
B |--5--5--5----7-7-----7---5--5--5--1-1---7-7--7----------------|
F#|--5--5--5----5-5-----5---3--3--3--1-1---5-5--5-5-3-5-6-5-3-5--|
B |--5--5--5-------------------------1-1-------------------------|

E |---------------------------------------|
B |---------------------------------------|
G |---------------------------------------|
B |--5--5--5----7-7-----7---5--5--5--1-1--|
F#|--5--5--5----5-5-----5---3--3--3--1-1--|
B |--5--5--5-------------------------1-1--|


  Verse:
     T  T  T   T            T  T  T   T     T   T             T  T  T
E |--------------------------------------------------------------------|
B |--------------------------------------------------------------------|
G |--------------------------------------------------------------------|
B |--12-12-13--12p10h12/17--13-16-12--10/16-17p-13\12--/19p17-16-16-16-|
F#|--------------------------------------------------------------------|
B |--------------------------------------------------------------------|
    
     T  T      T         T     T   T      T  T  T  T
E |---------------------------------------------------------|
B |---------------------------------------------------------|
G |---------------------------------------------------------|
B |--10-13p12--10h12/17--13p12-16--12\10--16-17-16-13\12\10-|
F#|---------------------------------------------------------|
B |---------------------------------------------------------|

   (optional powerchord on all hammer ons, change them to slides)
E |-----------------------------------------------------------------|
B |-----------------------------------------------------------------|
G |-----------------------------------------------------------------|
B |-----------------------------------------------------------------|
F#|-5-5-5-5-5-5-3h5-5-5-5-5-5-5-3h5-5-5-5-5-5-5-5-6-6-6-6-3-3-3-----|
B |-------------------------------------------------------------1p0-|
      . . . . .     . . . . . .     . . . . . . .   . . .   . .      

E |-----------------------------------------------------------------|
B |-----------------------------------------------------------------|
G |-----------------------------------------------------------------|
B |-----------------------------------------------------------------|
F#|-5-5-5-5-5-5-3h5-5-5-5-5-5-5-3h5-5-5-5-6-6-6-6-6-3-3-3-3-6-6-6-5-|
B |-----------------------------------------------------------------|
    . . . . . .     . . . . . .     <<<<<<<<<<<<<<<<<<<<<<<<<<<<<<<

  PreChorus:
E |-----------------------------------------------------------------------|
B |-----------------------------------------------------------------------|
G |-----------------------------------------------------------------------|
B |--7-7---7-7---7-7--8-8---5-5----7-7---7-7---7-7--8-8---5-5-5-4-4-5-4-2-|
F#|--5-5---5-5---5-5--6-6---3-3----5-5---5-5---5-5--6-6---3-3-3-----------|
B |-----------------------------------------------------------------------|

E |-----------------------------------------------------------------------|
B |-----------------------------------------------------------------------|
G |-----------------------------------------------------------------------|
B |--7-7---7-7---7-7--8hold-5hold-7-7---7-7-----8hold--5hold--------------|
F#|--5-5---5-5---5-5--6hold-3hold-5-5---5-5-----6hold--3hold--------------|
B |-----------------------------------------------------------------------|

E |-----------------------|
B |-----------------------|
G |-----------------------|
B |--7---7---7---7---7--7-|
F#|--5---5---5---5---5--5-|
B |-----------------------|

  Chorus:
E |--------------------------------------------------------------|
B |--------------------------------------------------------------|
G |--------------------------------------------------------------|
B |--5--5--5----7-7-----7---5--5--5--1-1---7-7--7----------------|
F#|--5--5--5----5-5-----5---3--3--3--1-1---5-5--5-5-3-5-6-5-3-5--|
B |--5--5--5-------------------------1-1-------------------------|

E |--------------------------------------------------------|
B |--------------------------------------------------------|
G |--------------------------------------------------------|
B |--5--5--5----7-7-----7---5--5---1-1---7hold-------7-7---|
F#|--5--5--5----5-5-----5---3--3---1-1---5hold-------5-5---|
B |--5--5--5-----------------------1-1---------------------|


Interlude: 
     T  T  T   T            T  T  T   T     T   T             T  T  T
E |--------------------------------------------------------------------|
B |o-------------------------------------------------------------------|
G |--------------------------------------------------------------------|
B |--12-12-13--12p10h12/17--13-16-12--10/16-17p-13\12--/19p17-16-16-16-|
F#|o-------------------------------------------------------------------|
B |--------------------------------------------------------------------|
    
     T  T      T         T     T   T      T  T  T  T
E |---------------------------------------------------------|
B |--------------------------------------------------------o|
G |---------------------------------------------------------|
B |--10-13p12--10h12/17--13p12-16--12\10--16-17-16-13\12\10-|
F#|--------------------------------------------------------o|
B |---------------------------------------------------------| play twice,
   first time not quite like this, sus it out yourself.

E |------------------------------------------------|
B |------------------------------------------------|
G |------------------------------------------------|
B |--12--12--16--17--19--22--22--22-20--19-h20p19--|
F#|------------------------------------------------|
B |------------------------------------------------| x2

E |---------------------------|
B |---------------------------|
G |--------8h11---------8h11--|
B |--12h13--------12h13-------|
F#|---------------------------|
B |---------------------------| x2

  PreChorus:
E |-----------------------------------------------------------------------|
B |-----------------------------------------------------------------------|
G |-----------------------------------------------------------------------|
B |--7-7---7-7---7-7--8-8---5-5----7-7---7-7---7-7--8-8---5-5-5-----------|
F#|--5-5---5-5---5-5--6-6---3-3----5-5---5-5---5-5--6-6---3-3-3-----------|
B |-------------------------------------------------------------4-4-5-4-2-|




E |-----------------------------------------------------------------------|
B |-----------------------------------------------------------------------|
G |-----------------------------------------------------------------------|
B |--7-7---7-7---7-7--8hold-5hold-7-7---7-7-----8hold--5hold--------------|
F#|--5-5---5-5---5-5--6-----3-----5-5---5-5-----6------3------------------|
B |--0-0------------------------------------------------------------------|

E |-----------------------|
B |-----------------------|
G |-----------------------|
B |--7---7---7---7---7--7-|
F#|--5---5---5---5---5--5-|
B |-----------------------|

  Chorus:
E |--------------------------------------------------------------|
B |--------------------------------------------------------------|
G |--------------------------------------------------------------|
B |--5--5--5----7-7-----7---5--5--5--1-1---7-7--7----------------|
F#|--5--5--5----5-5-----5---3--3--3--1-1---5-5--5-5-3-5-6-5-3-5--|
B |--5--5--5-------------------------1-1-------------------------|


E |--------------------------------------------------------------|
B |--------------------------------------------------------------|
G |--------------------------------------------------------------|
B |--5--5--5----7-7-----7---5--5--5--1-1---7-7--7-------4-5-7----|
F#|--5--5--5----5-5-----5---3--3--3--1-1---5-5--5-5-3-5----------|
B |--5--5--5-------------------------1-1-------------------------|

E |---------------------------------------------------------------|
B |---------------------------------------------------------------|
G |---------------------------------------------------------------|
B |--5--5--5----7-7-----7--7---5--5--5--1--1--1--5--5--5--1--1--1-|
F#|--5--5--5----5-5-----5--5---3--3--3--1--1--1--3--3--3--1--1--1-|
B |--5--5--5----------------------------1--1--1-----------1--1--1-|

  Outro:
     T  T  T   T            T  T  T   T     T   T             T  T  T
E |--------------------------------------------------------------------|
B |o-------------------------------------------------------------------|
G |--------------------------------------------------------------------|
B |--12-12-13--12p10h12/17--13-16-12--10/16-17p-13\12--/19p17-16-16-16-|
F#|o-------------------------------------------------------------------|
B |--------------------------------------------------------------------|
    
     T  T      T         T     T   T      T  T  T  T
E |---------------------------------------------------------|
B |--------------------------------------------------------o|
G |---------------------------------------------------------|
B |--10-13p12--10h12/17--13p12-16--12\10--16-17-16-13\12\10-|
F#|--------------------------------------------------------o|
B |---------------------------------------------------------| play x3
   First time play as is, second play on high B string, third time play as is again.

E |--------------------------------|
B |--------------------------------|
G |--------------------------------|
B |--12-12-12-10------12-12--10--3-|
F#|--12-12-12-10------12-12--10--3-|
B |--12-12-12-10------12-12--10--3-|
            
Submit corrections

↑ Back to top | Tablatures and chords for acoustic guitar and electric guitar, ukulele, drums are parodies/interpretations of the original songs. You may use it for private study, scholarship, research or language learning purposes only