Home » K » Kari Jobe »

Kari Jobe - Saviors Here Tabs

Artists:  A B C D E F G H I J K L M N O P Q R S T U V W X Y Z # 

Saviors Here Tabs

(ver. 2) Click to play this song!
Kari Jobe
[Intro/Instrumental]
e|----------------------------------------------------------------|
B|----------------------------------------------------------------|
G|-2-4-4-2-4-4-2-4-4-5-5-4-5-4-5-4-2-4-4-2-4-4-4-2----------------|
D|-0-0-0-0-0-0-0-0-0-0-0-0-0-0-0-0-0-0-0-0-0-0-0-0-4-4-4-4-4-5-5--|
A|-------------------------------------------------5-5-5-5-5-5-5--|
E|----------------------------------------------------------------|

e|----------------------------------------------------------------|
B|----------------------------------------------------------------|
G|-2-4-4-2-4-4-2-4-4-5-5-4-5-4-5-4-2-4-4-2-4-4-4-2----------------|
D|-0-0-0-0-0-0-0-0-0-0-0-0-0-0-0-0-0-0-0-0-0-0-0-0-4-4-4-4-4-5-5--|
A|-------------------------------------------------5-5-5-5-5-5-5--|
E|----------------------------------------------------------------|            
Submit corrections

↑ Back to top | Tablatures and chords for acoustic guitar and electric guitar, ukulele, drums are parodies/interpretations of the original songs. You may use it for private study, scholarship, research or language learning purposes only