» » »

Karate - The State I'm In' Aka 'Goode Buy From Cobbs Creek Park Tabs

Artists:  A B C D E F G H I J K L M N O P Q R S T U V W X Y Z # 

The State I'm In' Aka 'Goode Buy From Cobbs Creek Park Tabs

(ver. 1) Click to play this song!
Karate
 Rating:
4/5 (4 votes)

 The State I'm In' Aka 'Goode Buy From Cobbs Creek Park lessons Tabs too difficult? Try these video lessons and learn fast
 
                #################################################
Tuning: Standard
Chords: /
#################################################

Intro:

 e--9-----|
 B--10----|
 G--9-----|
 D--11----|
 A--9-----|
 E--------|

Verse A/play 4x:

 e--7--7--------5--5--7--7-----------------(9---9---9---9)--|
 B--7--7--7--7--5--5--8--8--12--12--12--12--10--10--10--10--|
 G--7--7--7--7--6--6--7--7--12--12--12--12--9---9---9---9---|
 D--9--9--7--7--7--7--9--9--12--12--12--12--11--11--11--11--|
 A--9--9--5--5--7--7--7--7--10--10--10--10--9---9---9---9---|
 E--7--7--------5--5----------------------------------------|

Verse B/slight whammy bar on each chord:

 e--7----7-----------------------|
 B--7----8----5--8--10--10--10---|
 G--7----7----7--9--10--10--9----|
 D--9----9----7--9--10--10--11---|
 A--9----7----5--7--8---8---9----|
 E--7----------------------------|

Solo #1:

 e--------------7-7-9-9br-7--------7---------------|
 B--------7-10B-------------7----7---10-7---9-7-\--|
 G------7---------------------9B------------9-7-\--|
 D--7h9-----------------------------------9--------|
 A-------------------------------------------------|
 E-------------------------------------------------|

 e--7----------------------------------9/w\--------|
 B--7-10-9p(7)-7-------------------5/7-------------|
 G---------------9-7---------7---7-----------------|
 D-------------------9-7h8h9---9-------------------|
 A-------------------------------------------------|
 E-------------------------------------------------|

 e--7------7-9-10\9/10B~-10-7h10h7----7------------------|
 B-------7-------------------------10---10-7-------------|
 G----9B-------------------------------------9-7---------|
 D-----------------------------------------------9-7-9\--|
 A-------------------------------------------------------|
 E-------------------------------------------------------|

 e--7----------------7------------------------------|
 B--7-10-9p7----7----7--10-10p7---7-9-10~/w\~---10--|
 G-----------9b---9B------------9---------------9---|
 D----------------------------------------------11--|
 A----------------------------------------------9---|
 E--------------------------------------------------|

Verse A/play 2x

Verse B

Solo #2:

 e--7----------------------------------7-9b10^(12)-|
 B--7-10-9p7---7-------------7-9-----7-------------|
 G-----------9---9-7---------7-9---7---------------|
 D-------------------9-7h8h9-----9-----------------|
 A-------------------------------------------------|
 E-------------------------------------------------|

 e-10-7h10p7----7-----7--7-9-10/9-7------------7--------------------|
 B-----------10---10B---------------10-9p7---7-7-10-9p7---7---------|
 G-----------------------------------------9------------9-----7-\---|
 D----------------------------------------------------------9-------|
 A------------------------------------------------------------------|
 E------------------------------------------------------------------|

 e------------------------------------------------------|
 B--------7-7h9^(10)r9-7---7---------------(7)-(7)------|
 G--------7-7------------9---9brp7---7-9-9B-7---7-7-\---|
 D--7h8h9--------------------------9----------9---7-\---|
 A------------------------------------------------------|
 E------------------------------------------------------|

 e-------------------------------------------------|
 B--------7--10-9p7---7-------------10-~-----------|
 G--------7---------9---9-7---------9--~-----------|
 D--7h8h9-------------------9-7/8---8--~-/whammy\--|
 A--------------------------------9-9--~-----------|
 E-------------------------------------------------|

Outro:

 e----------------7---------------9---10-------------------------------------------|
 B--------7---7-----7---------7-----7----7----------------7-----------------7------|
 G------7---7---7-----7-----7---7----------7------7---7-----7-------7---7-----7----|
 D--7h9-----------------7h9---------------------9---9---9-----9---8---8---8-----8--|
 A-------------------------------------------10-----------------9------------------|
 E---------------------------------------------------------------------------------|

 e----------------7---------------9---10------------------------7-------------------------|
 B--------7---7-----7---------7-----7----7----------------7-----7-10-9p7------------------|
 G------7---7---7-----7-----7---7----------7------7---7-----7------------9-7--------------|
 D--7h9-----------------7h9---------------------9---9---9-----9--------------9-7/8--------|
 A-------------------------------------------10------------------------------------9~/w\--|
 E----------------------------------------------------------------------------------------|

END

Tablature explanation:
######################
B            Full Bend
b            1/2  Bend
bb          1/4  Bend
~            Tremolo
^(#)      Bend to (#)
/            Slide up
\            Slide down
h            Hammer-on
p            Pull-off
(#)        Ghost note
%            Rest
######################
            
Submit corrections


        The State I'm In' Aka 'Goode Buy From Cobbs Creek Park lessons Hard to play? Try these video lessons and learn fast The State I'm In' Aka 'Goode Buy From Cobbs Creek Park lessons
        
↑ Back to top | Tablatures and chords for acoustic guitar and electric guitar, ukulele, drums are parodies/interpretations of the original songs. You may use it for private study, scholarship, research or language learning purposes only