Home » K » Kanye West »

Kanye West - All Of The Lights Tabs

Artists:  A B C D E F G H I J K L M N O P Q R S T U V W X Y Z # 

All Of The Lights Tabs

(ver. 1) Click to play this song!
Kanye West
[main riff]
E|--------------------------|----------------------------|-----9-----9---------------|
B|--------------------------|--9-7-7-7-7-7-6-------------|--6----9----9-6-6----------|
G|-----------------6-6-6-6--|-----------------8-8-8-8-8--|------------------8--8-6-8-|
D|-8--8-8-8-8-8-8-----------|----------------------------|---------------------------|
A|--------------------------|----------------------------|---------------------------|
E|--------------------------|----------------------------|---------------------------|

[bass riff] (can play on normal 6 string)
E|-----------------------------|--------------------------------------|
B|-----------------------------|--------------------------------------|
G|-----------------------------|--------------------------------------|
D|-----------------------------|--6---4---4-4-4-4-3---1---1-1-1-1-----|
A|-1---1-1-1-1-1---1---4-4-4-4-|----------------------------------4---|
E|-----------------------------|--------------------------------------|

[vocal]

E|--------------------|-----------------------|---------------------|
B|-----6-6------------|------6-6--------9-6---|-----6-6-------------|
G|-6-8------8-8--6-8--|--6-8-----8-6--6-------|-6-8------8-8--8-6---|
D|--------------------|-----------------------|---------------------|
A|--------------------|-----------------------|---------------------|
E|--------------------|-----------------------|---------------------|

E|-----------------------------|------------------|
B|---------6-6----------7-6----|------------------|
G|---6-6-8------6-6-6-6-----8--|--6-6-6-6-6-6-6---|
D|-----------------------------|----------------8-|
A|-----------------------------|------------------|
E|-----------------------------|------------------|

[bridge]
E|---------------------------------------|----------------------------------------|
B|-6--6------6-------6-------------------|------------6---------6-----------------|
G|---------8---8---8---8-8---6-6-6-------|-----6-6--8---8-6-6-6---8----(-6-8-8-8-)|
D|---------------------------------8-----|----------------------------------------|
A|---------------------------------------|----------------------------------------|
E|---------------------------------------|----------------------------------------|

E|-----9-----------|---------------------------------|--------------------------------|
B|-------9--6-9-6--|--9-9-9-7-7-7-7-6-6--------------|--9-9-9-7-7-7-7-6-6-------------|
G|-6-6-------------|--------------------8-8-6-6------|--------------------8-8-6-6-----|
D|-----------------|----------------------------8\6--|----------------------------8\6-|
A|-----------------|---------------------------------|--------------------------------|
E|-----------------|---------------------------------|--------------------------------|

[pre chorus]
'Strobe lights flash lights'
E|----------------------------------------------------------------|------------|
B|----------------------------------------------6-----------------|------------|
G|-6-6-6--------------------------------------8---8-8--6-6-6------|---(6-8-8-8)|
D|-------8--6h8-8--6h8-8--6h8-8--6h8-8--6h8-8----------------8\6--|------------|
A|----------------------------------------------------------------|------------|
E|----------------------------------------------------------------|------------|

["Were going all the way this time" backing]
E|-13----13----14----13-----|-----------------|-----9-----9---------------|
B|----11----11----11----11--|--------9-7--6---|--6----9----9-6-6----------|
G|--------------------------|----6----------8-|------------------8--8-6-8-|
D|--------------------------|-8---------------|---------------------------|
A|--------------------------|-----------------|---------------------------|
E|--------------------------|-----------------|---------------------------|

['were going all']
E|-----------------------------|---------------------|
B|-----------------------------|---------------------|
G|-----------------------------|---------------------|
D|-8-10-10-10-10-10-10-11-8----|---6-6-6-6-6-6-6-6\8-|
A|-----------------------------|---------------------|
E|-----------------------------|---------------------|            
Submit corrections

↑ Back to top | Tablatures and chords for acoustic guitar and electric guitar, ukulele, drums are parodies/interpretations of the original songs. You may use it for private study, scholarship, research or language learning purposes only