Home » K » Kanye West »

Kanye West - All Of The Lights Bass

Artists:  A B C D E F G H I J K L M N O P Q R S T U V W X Y Z # 

All Of The Lights Bass

(ver. 1) Click to play this song!
Kanye West
-------------------------------------------------------------------------------
-------------------------------------------------------------------------------


Tuning: Standard

AS IN ORIGINAL RECORDING
G|-----------------------------------------------------------------|
D|-----------------------------6---4---4-4-4-4-3---1---1-1-1-1-----|
A|-1---1-1-1-1-1---1---4-4-4-4---------------------------------4---|
E|-----------------------------------------------------------------|

Repeat ad nauseum.

Chords are as follows:
Bbm		Gbmaj	Ebm

===============================================================================

HALF-STEP-DOWN:
G|-----------------------------------------------------------------|
D|-----------------------------5---3---3-3-3-3-2---0---0-0-0-0-----|
A|-0---0-0-0-0-0---0---3-3-3-3---------------------------------3---|
E|-----------------------------------------------------------------|

Recommended for playing in full band setup, chords are as follows:
Am F Dm
listen to the song for placement, and everything should fall into place.

-C
            
Submit corrections

↑ Back to top | Tablatures and chords for acoustic guitar and electric guitar, ukulele, drums are parodies/interpretations of the original songs. You may use it for private study, scholarship, research or language learning purposes only