» » »

Kanaku And El Tigre - Bicicleta Tabs

Artists:  A B C D E F G H I J K L M N O P Q R S T U V W X Y Z # 

Bicicleta Tabs

(ver. 1) Click to play this song!
Kanaku And El Tigre
 Rating:
4.2/5 (5 votes)

 Bicicleta  lessons Tabs too difficult? Try these video lessons and learn fast
 
                Tuning: Standard
A Major

e|---------------------------------------------------------------------------|
B|---------------------------------------------------------------------------|
G|-----6------6------6------6-----------6------6------6------6---------------| intro
D|---7---7--7---7--7---7--7---7-------7---7--7---7--7---7--7---7-------------|
A|---------------------------------------------------------------------------|
E|-5--------------------------------5----------------------------------------|

e|---------------------------------------------------------------------------|
B|-10---10----------10----------------10-10----10-------------10-------------| repetir
G|-----------11---9----------11---9------------------11---9------------------|
D|---------------------------------------------------------------------------|
A|---------------------------------------------------------------------------|
E|---------------------------------------------------------------------------|

e|----------9-10-9-----------------------------------------------------------|
B|-10-10-12--------12-10-----------------------------------------------------| lick
G|---------------------------------------------------------------------------|
D|---------------------------------------------------------------------------|
A|---------------------------------------------------------------------------|
E|---------------------------------------------------------------------------|

e|---------------------------------------------------------------------------|
B|-12/14-14------12/14-14------12/14-14--------------------------------------| otro lick
G|---------------------------------------------------------------------------|
D|---------------------------------------------------------------------------|
A|---------------------------------------------------------------------------|
E|---------------------------------------------------------------------------|
            
Submit corrections


        Bicicleta  lessons Hard to play? Try these video lessons and learn fast Bicicleta  lessons
        
↑ Back to top | Tablatures and chords for acoustic guitar and electric guitar, ukulele, drums are parodies/interpretations of the original songs. You may use it for private study, scholarship, research or language learning purposes only