» » »

Kamikazee - Ambisyoso Bass

Artists:  A B C D E F G H I J K L M N O P Q R S T U V W X Y Z # 

Ambisyoso Bass

(ver. 2) Click to play this song!
Kamikazee
 Rating:
4.5/5 (8 votes)


 Ambisyoso lessons Tabs too difficult? Try these video lessons and learn fast
 
                Ambisyoso bass Tab

im a bass guitarist of W,A.N.T. W.A.R. (We Are Not Trashers We Are Rockers)

pasesya na kc 1st time kong mag tab...
kinapa ko lng to pero cguro tama 2 kc
magkaparehas ng 2nog eh....

e2 Standard tuning (EADG)

G-11--------14------11-------12------14--------------|
D-12-(10x)--12-(3x)-12-(1x)--12-(8x)-12-(3x)---------|
A----------------------------------------------------|
E----------------------------------------------------|

G-11--------14------11-------12-------------|
D-12-(10x)--12-(3x)-12-(1x)--12-*1x)--------|
A-------------------------------------------|
E-------------------------------------------|


Bsta sbyan nyu nlang timing ni2 hanggang ....
masarap sanang magkaroon ng sapatos na lumilipad....
G-------------------------------|
D-------------------------------|
A--5555555555555----------------|
E---------------222222-33333----|

Chorus:
G---------------------------------|
D---------------------------------|
A-xx-5555555555555----------------|
E-xx--------------222222-33333----|

G----------------------------------|
D----------------------------------|
A--5555555555555-------------------|
E---------------222222-3-232355----|

masarap sanang maging bida sa sarili kong pelikula
G-------------------------------|
D-------------------------------|
A--5555555555555----------------|
E---------------222222-33333----|

(this sounds the same on the song)
ninja kumakain ng bala magaling sumayaw parang john travolta
G------------------------------------------|
D---4---4h5--------------------------------|
A-5---5------75-4-2-4-540------------------|
E--------------------------22222-33333-----|

ka love team ko ang lahat ng magaganda at seksing artista...
G-------------------------------|
D-------------------------------|
A--5555555555555----------------|
E---------------222222-33333----|  2x

Chorus:
G---------------------------------|
D---------------------------------|
A-xx-5555555555555----------------|
E-xx--------------222222-33333----|

G----------------------------------|
D----------------------------------|
A--5555555555555-------------------|
E---------------222222-3-232355----|

bridge:
G------------------------------------|
D------------------------------------|
A------------------------------------|
E-55555555-77777777-3333333333333333-|

|---------------------------------------------|
|---------------------------------------------|
|--------------------------22-55-------22-55--|
|-55555555-77777777---33-55-------33-55-------|

di tulad sa tindahan....
G------------------------------------|
D------------------------------------|
A------------------------------------|
E-55555555-77777777-3333333333333333-|

G------------------------------------------|
D------------------------------------------|
A------------------------------------------|
E-55555555-77777777-3333333333333333(hold)-|

(guitar solo)
G---------------------|
D---------------------|
A---------------------|
E-222222-333333(hold)-|
(guitar solo)
pgkatapos ng guitar solo (4th time)

G------------------------------------------|
D------------------------------------------|
A------------------------------------------|
E-223232(hold)-223232(hold)-22323225555555-|


Chorus
G---------------------------------|
D---------------------------------|
A----5555555555555----------------|
E-----------------222222-33333----| 3x

G--------------------------|
D--------------------------|
A--5555555555555-----------|
E---------------2-22223----| 

====================================
For Drop d tuning:

G-11--------14------11-------12------14--------------|
D-12-(10x)--12-(3x)-12-(1x)--12-(8x)-12-(3x)---------|
A----------------------------------------------------|
E----------------------------------------------------|

G-11--------14------11-------12-------------|
D-12-(10x)--12-(3x)-12-(1x)--12-*1x)--------|
A-------------------------------------------|
E-------------------------------------------|


Bsta sbyan nyu nlang timing ni2 hanggang ....
masarap sanang magkaroon ng sapatos na lumilipad....
G-------------------------------|
D-------------------------------|
A--5555555555555----------------|
E---------------444444-55555----|

Chorus:
G---------------------------------|
D---------------------------------|
A-xx-5555555555555----------------|
E-xx--------------444444-55555----|

G----------------------------------|
D----------------------------------|
A--5555555555555-------------------|
E---------------4444444-5-45457----|

masarap sanang maging bida sa sarili kong pelikula
G-------------------------------|
D-------------------------------|
A--5555555555555----------------|
E---------------444444-55555----|

(this sounds the same on the song)
ninja kumakain ng bala magaling sumayaw parang john travolta
G------------------------------------------|
D---4---4h5--------------------------------|
A-5---5------75-4-2-4-540------------------|
E--------------------------44444-55555-----|

ka love team ko ang lahat ng magaganda at seksing artista...
G-------------------------------|
D-------------------------------|
A--5555555555555----------------|
E---------------444444-55555----|  2x

Chorus:
G---------------------------------|
D---------------------------------|
A-xx-5555555555555----------------|
E-xx--------------444444-55555----|

G----------------------------------|
D----------------------------------|
A--5555555555555-------------------|
E---------------444444-5-454577----|

bridge:
G------------------------------------|
D------------------------------------|
A------------------------------------|
E-77777777-99999999-5555555555555555-|

|---------------------------------------------|
|---------------------------------------------|
|--------------------------22-55-------22-55--|
|-77777777-99999999---55-77-------55-77-------|

di tulad sa tindahan....
G------------------------------------|
D------------------------------------|
A------------------------------------|
E-77777777-99999999-5555555555555555-|

G------------------------------------------|
D------------------------------------------|
A------------------------------------------|
E-77777777-99999999-5555555555555555(hold)-|

(guitar solo)
G---------------------|
D---------------------|
A---------------------|
E-444444-333333(hold)-|
(guitar solo)
pgkatapos ng guitar solo (4th time)

G------------------------------------------|
D------------------------------------------|
A------------------------------------------|
E-445454(hold)-445454(hold)-44545447777777-|


Chorus
G---------------------------------|
D---------------------------------|
A----5555555555555----------------|
E-----------------444444-55555----| 3x

G--------------------------|
D--------------------------|
A--5555555555555-----------|
E---------------4-44445----| 


++++++++++++++++++++++
aknowledgement:
Thanks to: Gerard Emmanuel Amador for the guitar tab (i edited the bass tab, and changed)
TFC subscribers, hehe joke! peace!
            
Submit corrections



        Ambisyoso lessons Hard to play? Try these video lessons and learn fast Ambisyoso lessons
        
↑ Back to top | Tablatures and chords for acoustic guitar and electric guitar, ukulele, drums are parodies/interpretations of the original songs. You may use it for private study, scholarship, research or language learning purposes only