» » »

Kakkmaddafakka - Pick Me Tabs

Artists:  A B C D E F G H I J K L M N O P Q R S T U V W X Y Z # 

Pick Me Tabs

(ver. 1) Click to play this song!
Kakkmaddafakka
 Rating:
3.8/5 (22 votes)

 Pick Me  lessons Tabs too difficult? Try these video lessons and learn fast
 
                Tuning:standard

INTRO (Main riff)
e|---------------------------------------------------------------------------|
B|---------------------------------------------------------------------------|
G|---------------------------------------------------------------------------| x2
D|--------------6--------------6---------------6-----------------------------|
A|------------6---6--6-------6---6---6-------6---6---6------------8----------|
E|------6-6-9-------9--6-6-9-------9---6-6-9-------9---9-9-9-8-6-------------|

e|---------------------------------------------------------------------------|
B|---------------------------------------------------------------------------|
G|---------------------------------------------------------------------------|
D|--------8--88--8--88--8--88--8--88-----------------------------------------|
A|--------8--88--8--88--8--88--8--88-----------------------------------------|
E|--------6--66--6--66--6--66--6--66-----------------------------------------|

VERSE 1

e|---------------------------------------------------------------------------|
B|---------------------------------------------------------------------------|
G|----------------6--66--10--1010--------------------------------------------|
D|--8--88--8--88--6--66--10--1010--------------------------------------------|x2
A|--8--88--8--88--4--44--8---8-8---------------------------------------------|
E|--6--66--6--66-------------------------------------------------------------|

notes like this : (8) are played with another guitar, and a lot of disto

e|---------------------------------------------------------------------------|
B|---------------------------------------------------------------------------|
G|---------------------------------------------------------------------------|
D|--8--88-----6--66-----4--44-----3--33--------------------------------------| x2
A|--8--88-(8)-6--66-(6)-4--44-(4)-3--33-(3)----------------------------------|
E|--6--66-----4--44-----2--22-----1--11--------------------------------------|

back to main riff

then :
e|---------------------------------------------------------------------------|
B|---------------------------------------------------------------------------|
G|---------------------------------------------------------------------------|
D|--8--88-----8--88-----8--88-----8--88--------------------------------------|
A|--8--88-(8)-8--88-(8)-8--88-(8)-8--88-(8)----------------------------------|
E|--6--66-----6--66-----6--66-----6--66--------------------------------------|

VERSE 2 (similar to VERSE 1)

e|---------------------------------------------------------------------------|
B|---------------------------------------------------------------------------|
G|----------------6--66--10--1010--------------------------------------------|
D|--8--88--8--88--6--66--10--1010--------------------------------------------|x2
A|--8--88--8--88--4--44--8---8-8---------------------------------------------|
E|--6--66--6--66-------------------------------------------------------------|

e|---------------------------------------------------------------------------|
B|---------------------------------------------------------------------------|
G|---------------------------------------------------------------------------|
D|--8--88-----6--66-----4--44-----3--33--------------------------------------| x2
A|--8--88-(8)-6--66-(6)-4--44-(4)-3--33-(3)----------------------------------|
E|--6--66-----4--44-----2--22-----1--11--------------------------------------|

you can play those following parts with power chords, but it sounds better with only one note

e|---------------------------------------------------------------------------|
B|---------------------------------------------------------------------------|
G|---------------------------------------------------------------------------|
D|---------------------------------------------------------------------------|
A|---------------------------------------------------------------------------|
E|-2-2-2-2-1-1-1-1--6--64-42-2-2-1-1-2-2-2-2-1-1-1-1-------------------------|

e|---------------------------------------------------------------------------|
B|---------------------------------------------------------------------------|
G|---------------------------------------------------------------------------|
D|---------------------------------------------------------------------------|x2
A|---------------------------------------------------------------------------|
E|-6-6-64-6-6-64-6-6-64-6-6-64-----------------------------------------------|

"hey, hey, you really got me now, you really got me, you really got me now, baby" PART

e|---------------------------------------------------------------------------|
B|---------------------------------------------------------------------------|
G|---------------------------------------------------------------------------|
D|---------------------------------------------------------------------------| x4
A|----------4-------4-------4-------4----------------------------------------|
E|---6-6-646-6-6-646-6-6-646-6-6-646--6-6-4----------------------------------|

The solo is way too much hard for me, but the bass keeps playing the part above

ENDING 1st guitar
e|--------------------------------------------------------------------------------------|
B|--------------------------------------------------------------------------------------|
G|--------------------------------------------------------------------------------------|
D|--------------------------8-8-8-8-6-6-6-6-4-4-4-4-3-3-3-8-8-8-8-6-6-6-6-4-4-4-4-3-3-3-|
A|--------------------------8-8-8-8-6-6-6-6-4-4-4-4-3-3-3-8-8-8-8-6-6-6-6-4-4-4-4-3-3-3-|
E|-6~-4~-2~-1~-6~-4~-2~-1~--6-6-6-6-4-4-4-4-2-2-2-2-1-1-1-6-6-6-6-4-4-4-4-2-2-2-2-1-1-1-|

ENDING 2nd guitar

e|---------------------------------------------------------------------------|
B|---10-10-x1010-10-8-8--x88-8--6-6-x66-6--5-5-x55-5-------------------------|
G|---x--x--xx-x--x--x-x--xxx-x--x-x-xxx-x--x-x-xxx-x-------------------------|x4
D|---8--8--x8-8--8--6-6--x66-6--4-4-x44-4--3-3-x33-3-------------------------|
A|---------------------------------------------------------------------------|
E|---------------------------------------------------------------------------|
            
Submit corrections


        Pick Me  lessons Hard to play? Try these video lessons and learn fast Pick Me  lessons
        
↑ Back to top | Tablatures and chords for acoustic guitar and electric guitar, ukulele, drums are parodies/interpretations of the original songs. You may use it for private study, scholarship, research or language learning purposes only