» » »

Kaiser Chiefs - Bows And Arrows Tabs

Artists:  A B C D E F G H I J K L M N O P Q R S T U V W X Y Z # 

Bows And Arrows Tabs

(ver. 1) Click to play this song!
Kaiser Chiefs
 Rating:
4/5 (4 votes)

 Bows And Arrows  lessons Tabs too difficult? Try these video lessons and learn fast
 
                  INTRO

  Fm                                                  Db    
|-------8--8--------8--8--|-------8--8--------8--8--|-------9--9--------9--9--|-------9--9--------9--9--|
|-9--9--9--9--9--9--9--9--|-9--9--9--9--9--9--9--9--|-9--9--9--9--9--9--9--9--|-9--9--9--9--9--9--9--9--|
|-10-10-10-10-10-10-10-10-|-10-10-10-10-10-10-10-10-|-10-10-10-10-10-10-10-10-|-10-10-10-10-10-10-10-10-|
|-10-10-10-10-10-10-10-10-|-10-10-10-10-10-10-10-10-|-11-11-11-11-11-11-11-11-|-11-11-11-11-11-11-11-11-|
|-8--8--------8--8--------|-8--8--------8--8--------|-11-11-11-11-11-11-11-11-|-11-11-11-11-11-11-11-11-|
|-------------------------|-------------------------|-9--9--------9--9--------|-9--9--------9--9--------|
 (strum pattern: ▲-▼-▲-▼-▲-▼-▲-▼)

  Gm                                                  Eb
|-------10-10-------10-10-|-------10-10-------10-10-|-------11-11-------11-11-|-------11-11-------11-11-|
|-11-11-11-11-11-11-11-11-|-11-11-11-11-11-11-11-11-|-11-11-11-11-11-11-11-11-|-11-11-11-11-11-11-11-11-|
|-12-12-12-12-12-12-12-12-|-12-12-12-12-12-12-12-12-|-12-12-12-12-12-12-12-12-|-12-12-12-12-12-12-12-12-|
|-12-12-12-12-12-12-12-12-|-12-12-12-12-12-12-12-12-|-13-13-13-13-13-13-13-13-|-13-13-13-13-13-13-13-13-|
|-10-10-------10-10-------|-10-10-------10-10-------|-13-13-13-13-13-13-13-13-|-13-13-13-13-13-13-13-13-|
|-------------------------|-------------------------|-11-11-------11-11-------|-11-11-------11-11-------|


  VERSE I

    Cm                                        C
|| -------------------|---------------------|-----------------|-----------8-8-8- ||
|| -------------------|---------------------|-----8-8-----8-8-|-----8-8---8-8-8- ||
||o-----8-8-------8-8-|-------8-8-------8-8-|-9-9-----9-9-----|-9-9-----9-------o||
||o-10------10-10-----|-10-10-----10-10-----|-----------------|-----------------o||
|| -------------------|---------------------|-----------------|----------------- ||
|| -------------------|---------------------|-----------------|----------------- ||X3
                                                                    
Cm                           C
Hold on to your hearts if you can
Cm                                         C
It's been the coldest year since records began
Cm                                             C
And now the sun is coming up again in no-man's land


  PRE-CHORUS 

  Fm                                                  Db    
|-------8--8--------8--8--|-------8--8--------8--8--|-------9--9--------9--9--|-------9--9--------9--9--|
|-9--9--9--9--9--9--9--9--|-9--9--9--9--9--9--9--9--|-9--9--9--9--9--9--9--9--|-9--9--9--9--9--9--9--9--|
|-10-10-10-10-10-10-10-10-|-10-10-10-10-10-10-10-10-|-10-10-10-10-10-10-10-10-|-10-10-10-10-10-10-10-10-|
|-10-10-10-10-10-10-10-10-|-10-10-10-10-10-10-10-10-|-11-11-11-11-11-11-11-11-|-11-11-11-11-11-11-11-11-|
|-8--8--------8--8--------|-8--8--------8--8--------|-11-11-11-11-11-11-11-11-|-11-11-11-11-11-11-11-11-|
|-------------------------|-------------------------|-9--9--------9--9--------|-9--9--------9--9--------|

  Gm                                                  Eb
|-------10-10-------10-10-|-------10-10-------10-10-|-------11-11-------11-11-|-------11-11-------11-11-|
|-11-11-11-11-11-11-11-11-|-11-11-11-11-11-11-11-11-|-11-11-11-11-11-11-11-11-|-11-11-11-11-11-11-11-11-|
|-12-12-12-12-12-12-12-12-|-12-12-12-12-12-12-12-12-|-12-12-12-12-12-12-12-12-|-12-12-12-12-12-12-12-12-|
|-12-12-12-12-12-12-12-12-|-12-12-12-12-12-12-12-12-|-13-13-13-13-13-13-13-13-|-13-13-13-13-13-13-13-13-|
|-10-10-------10-10-------|-10-10-------10-10-------|-13-13-13-13-13-13-13-13-|-13-13-13-13-13-13-13-13-|
|-------------------------|-------------------------|-11-11-------11-11-------|-11-11-------11-11-------|

         Fm        Db
So let's go into tomorrow
         Gm
Together fighting 
               Eb
We're bows and arrows


  CHORUS 

  Bb                                  Eb*
|-----------------|-----------------|-----------------|-----------------|
|-----3-3-----3-3-|-----3-3-----3-3-|-----8-8-----8-8-|-----8-8-----8-8-|
|-3-3-3-3-3-3-3-3-|-3-3-3-3-3-3-3-3-|-8-8-8-8-8-8-8-8-|-8-8-8-8-8-8-8-8-|
|-3-3-3-3-3-3-3-3-|-3-3-3-3-3-3-3-3-|-8-8-8-8-8-8-8-8-|-8-8-8-8-8-8-8-8-|
|-1-1-----1-1-----|-1-1-----1-1-----|-6-6-----6-6-----|-6-6-----6-6-----|
|-----------------|-----------------|-----------------|-----------------|

  Gm                                                  F
|-------10-10-------10-10-|-------10-10-------10-10-|-------------------------|-------------------------|
|-11-11-11-11-11-11-11-11-|-11-11-11-11-11-11-11-11-|-10-10-10-10-10-10-10-10-|-10-10-10-10-10-10-10-10-|
|-12-12-12-12-12-12-12-12-|-12-12-12-12-12-12-12-12-|-10-10-10-10-10-10-10-10-|-10-10-10-10-10-10-10-10-|
|-12-12-12-12-12-12-12-12-|-12-12-12-12-12-12-12-12-|-10-10-10-10-10-10-10-10-|-10-10-10-10-10-10-10-10-|
|-10-10-------10-10-------|-10-10-------10-10-------|-8--8--8--8--8--8--8--8--|-8--8--8--8--8--8--8--8--|
|-------------------------|-------------------------|-------------------------|-------------------------|

Bb
You and me on the front line
Eb*
You and me, every time
            Gm 
It's always you and me, we're bows and arrows
F 
You


  VERSE II

    Cm                                        C
|| -------------------|---------------------|-----------------|-----------8-8-8- ||
|| -------------------|---------------------|-----8-8-----8-8-|-----8-8---8-8-8- ||
||o-----8-8-------8-8-|-------8-8-------8-8-|-9-9-----9-9-----|-9-9-----9-------o||
||o-10------10-10-----|-10-10-----10-10-----|-----------------|-----------------o||
|| -------------------|---------------------|-----------------|----------------- ||
|| -------------------|---------------------|-----------------|----------------- ||X3

Cm                                               C
Well, I'm not waiting for no one, I'm waiting for you
Cm                                                C
Well, I'm not waiting for no one, I'm waiting for you
Cm                                               C
It takes the two of us together if we'll make it through


  PRE-CHORUS

  Fm                                                  Db    
|-------8--8--------8--8--|-------8--8--------8--8--|-------9--9--------9--9--|-------9--9--------9--9--|
|-9--9--9--9--9--9--9--9--|-9--9--9--9--9--9--9--9--|-9--9--9--9--9--9--9--9--|-9--9--9--9--9--9--9--9--|
|-10-10-10-10-10-10-10-10-|-10-10-10-10-10-10-10-10-|-10-10-10-10-10-10-10-10-|-10-10-10-10-10-10-10-10-|
|-10-10-10-10-10-10-10-10-|-10-10-10-10-10-10-10-10-|-11-11-11-11-11-11-11-11-|-11-11-11-11-11-11-11-11-|
|-8--8--------8--8--------|-8--8--------8--8--------|-11-11-11-11-11-11-11-11-|-11-11-11-11-11-11-11-11-|
|-------------------------|-------------------------|-9--9--------9--9--------|-9--9--------9--9--------|

  Gm                                                  Eb
|-------10-10-------10-10-|-------10-10-------10-10-|-------11-11-------11-11-|-------11-11-------11-11-|
|-11-11-11-11-11-11-11-11-|-11-11-11-11-11-11-11-11-|-11-11-11-11-11-11-11-11-|-11-11-11-11-11-11-11-11-|
|-12-12-12-12-12-12-12-12-|-12-12-12-12-12-12-12-12-|-12-12-12-12-12-12-12-12-|-12-12-12-12-12-12-12-12-|
|-12-12-12-12-12-12-12-12-|-12-12-12-12-12-12-12-12-|-13-13-13-13-13-13-13-13-|-13-13-13-13-13-13-13-13-|
|-10-10-------10-10-------|-10-10-------10-10-------|-13-13-13-13-13-13-13-13-|-13-13-13-13-13-13-13-13-|
|-------------------------|-------------------------|-11-11-------11-11-------|-11-11-------11-11-------|

         Fm        Db
So let's go into tomorrow
         Gm
Together fighting 
               Eb
We're bows and arrows
 

CHORUS

  Bb                                  Eb*
|-----------------|-----------------|-----------------|-----------------|
|-----3-3-----3-3-|-----3-3-----3-3-|-----8-8-----8-8-|-----8-8-----8-8-|
|-3-3-3-3-3-3-3-3-|-3-3-3-3-3-3-3-3-|-8-8-8-8-8-8-8-8-|-8-8-8-8-8-8-8-8-|
|-3-3-3-3-3-3-3-3-|-3-3-3-3-3-3-3-3-|-8-8-8-8-8-8-8-8-|-8-8-8-8-8-8-8-8-|
|-1-1-----1-1-----|-1-1-----1-1-----|-6-6-----6-6-----|-6-6-----6-6-----|
|-----------------|-----------------|-----------------|-----------------|

  Gm                                                  F
|-------10-10-------10-10-|-------10-10-------10-10-|-------------------------|-------------------------|
|-11-11-11-11-11-11-11-11-|-11-11-11-11-11-11-11-11-|-10-10-10-10-10-10-10-10-|-10-10-10-10-10-10-10-10-|
|-12-12-12-12-12-12-12-12-|-12-12-12-12-12-12-12-12-|-10-10-10-10-10-10-10-10-|-10-10-10-10-10-10-10-10-|
|-12-12-12-12-12-12-12-12-|-12-12-12-12-12-12-12-12-|-10-10-10-10-10-10-10-10-|-10-10-10-10-10-10-10-10-|
|-10-10-------10-10-------|-10-10-------10-10-------|-8--8--8--8--8--8--8--8--|-8--8--8--8--8--8--8--8--|
|-------------------------|-------------------------|-------------------------|-------------------------|

Bb
You and me on the front line
Eb*
You and me, every time
            Gm
It's always you and me, we're bows and arrows
F
You

  Gm                                                  Eb*
|-------10-10-------10-10-|-------10-10-------10-10-|-----------------|-----------------|
|-11-11-11-11-11-11-11-11-|-11-11-11-11-11-11-11-11-|-----8-8-----8-8-|-----8-8-----8-8-|
|-12-12-12-12-12-12-12-12-|-12-12-12-12-12-12-12-12-|-8-8-8-8-8-8-8-8-|-8-8-8-8-8-8-8-8-|
|-12-12-12-12-12-12-12-12-|-12-12-12-12-12-12-12-12-|-8-8-8-8-8-8-8-8-|-8-8-8-8-8-8-8-8-|
|-10-10-------10-10-------|-10-10-------10-10-------|-6-6-----6-6-----|-6-6-----6-6-----|
|-------------------------|-------------------------|-----------------|-----------------|

  Bb                                  F                                     F#
|-----------------|-----------------|-------------------------|-------------------------|
|-----3-3-----3-3-|-----3-3-----3-3-|-------10-10-------10-10-|-------10-10-11-11-11-11-|
|-3-3-3-3-3-3-3-3-|-3-3-3-3-3-3-3-3-|-10-10-10-10-10-10-10-10-|-10-10-10-10-11-11-11-11-|
|-3-3-3-3-3-3-3-3-|-3-3-3-3-3-3-3-3-|-10-10-10-10-10-10-10-10-|-10-10-10-10-11-11-11-11-|
|-1-1-----1-1-----|-1-1-----1-1-----|-8--8--------8--8--------|-8--8--------9--9--9--9--|
|-----------------|-----------------|-------------------------|-------------------------|

Gm
You and me when the sun goes down
            Eb*
It's always you and me when the whip goes 'round
            Bb
It's always you and me, we're bows and arrows
F   F#
You


INTERLUDE

  Gm*         Eb*         Gm*         Eb*  
|-----|-----|-----|-----|-----|-----|-----|-----|
|-3---|-(3)-|-8---|-(8)-|-3---|-(3)-|-8---|-(8)-|
|-3---|-(3)-|-8---|-(8)-|-3---|-(3)-|-8---|-(8)-|   Or you can use
|-5---|-(5)-|-8---|-(8)-|-5---|-(5)-|-8---|-(8)-|   Gm X10-12-12-11-10 and
|-5---|-(5)-|-6---|-(6)-|-5---|-(5)-|-6---|-(6)-|   Eb 11-13-13-12-11X
|-3---|-(3)-|-----|-----|-3---|-(3)-|-----|-----|
        (hold previous note)
Gm*
We the people, created equal
Eb*
We the people, created equal
Gm*
We the people, created equal
Eb*
We the people, created equal

  Gm*             Eb*             Bb              F
|-----3-3-|-(3)-|---------|-----|---------|-----|------------|------|
|-3---3-3-|-(3)-|-8---8-8-|-(8)-|-3---3-3-|-(3)-|-10---10-10-|-(10)-|
|-3---3-3-|-(3)-|-8---8-8-|-(8)-|-3---3-3-|-(3)-|-10---10-10-|-(10)-|
|-5---5-5-|-(5)-|-8---8-8-|-(8)-|-3---3-3-|-(3)-|-10---10-10-|-(10)-|
|-5---5-5-|-(5)-|-6---6-6-|-(6)-|-1---1-1-|-(1)-|-8----8--8--|-(8)--|
|-3-------|-----|---------|-----|---------|-----|------------|------|

Gm*
We the people, created equal
Eb*
We the people, created equal
Bb
We the people, created equal
F
We the people, created equal

  Gm*             Eb*             Bb              F*
|-----3-3-|-(3)-|---------|-----|---------|-----|-----------------|-----|
|-3---3-3-|-(3)-|-8---8-8-|-(8)-|-3---3-3-|-(3)-|-1-1-1-1-1-1-1-1-|-1---|
|-3---3-3-|-(3)-|-8---8-8-|-(8)-|-3---3-3-|-(3)-|-2-2-2-2-2-2-2-2-|-2---|
|-5---5-5-|-(5)-|-8---8-8-|-(8)-|-3---3-3-|-(3)-|-3-3-3-3-3-3-3-3-|-3---|
|-5---5-5-|-(5)-|-6---6-6-|-(6)-|-1---1-1-|-(1)-|-3-3-3-3-3-3-3-3-|-3---|
|-3-------|-----|---------|-----|---------|-----|-1-1-1-1-1-1-1-1-|-1---|

    Gm*
And if that's true then we're not the only ones
   (We the people, created equal)
    Eb*
And if that's true then we're not the only ones
   (We the people, created equal)
    Bb
And if that's true then we're not the only ones
   (We the people, created equal)
    F*                       N.C. (No Chord)
And if that's true then we're not the only ones
   (We the people, created equal)

 
FINAL CHORUS

    Bb                                  Eb*
|| -----------------|-----------------|-----------------|-----------------|
|| -----3-3-----3-3-|-----3-3-----3-3-|-----8-8-----8-8-|-----8-8-----8-8-|
||o-3-3-3-3-3-3-3-3-|-3-3-3-3-3-3-3-3-|-8-8-8-8-8-8-8-8-|-8-8-8-8-8-8-8-8-|
||o-3-3-3-3-3-3-3-3-|-3-3-3-3-3-3-3-3-|-8-8-8-8-8-8-8-8-|-8-8-8-8-8-8-8-8-|
|| -1-1-----1-1-----|-1-1-----1-1-----|-6-6-----6-6-----|-6-6-----6-6-----|
|| -----------------|-----------------|-----------------|-----------------|

  Gm                                                  F
|-------10-10-------10-10-|-------10-10-------10-10-|-------------------------|------------------------- ||
|-11-11-11-11-11-11-11-11-|-11-11-11-11-11-11-11-11-|-10-10-10-10-10-10-10-10-|-10-10-10-10-10-10-10-10- ||
|-12-12-12-12-12-12-12-12-|-12-12-12-12-12-12-12-12-|-10-10-10-10-10-10-10-10-|-10-10-10-10-10-10-10-10-o||
|-12-12-12-12-12-12-12-12-|-12-12-12-12-12-12-12-12-|-10-10-10-10-10-10-10-10-|-10-10-10-10-10-10-10-10-o||
|-10-10-------10-10-------|-10-10-------10-10-------|-8--8--8--8--8--8--8--8--|-8--8--8--8--8--8--8--8-- ||
|-------------------------|-------------------------|-------------------------|------------------------- ||X3

Bb
You and me on the front line
Eb*
You and me, every time
            Gm
It's always you and me, we're bows and arrows
F
You

Gm
You and me when the sun goes down
Eb*
It's always you and me when the whip goes 'round
            Bb
It's always you and me, we're bows and arrows
F
You

Bb
You and me on the front line
Eb
You and me, every time
            Gm
It's always you and me, we're bows and arrows
F
You

  Gm                                                  N.C.
|-------10-10-------10-10-|-------10-10-------10-10-|---|---|
|-11-11-11-11-11-11-11-11-|-11-11-11-11-11-11-11-11-|---|---|
|-12-12-12-12-12-12-12-12-|-12-12-12-12-12-12-12-12-|---|---|
|-12-12-12-12-12-12-12-12-|-12-12-12-12-12-12-12-12-|---|---|
|-10-10-------10-10-------|-10-10-------10-10-------|---|---|
|-------------------------|-------------------------|---|---|

  Bb                                  F                                     F#            Gm
|-----------------|-----------------|-------------------------|-------------------------|-10---|
|-----3-3-----3-3-|-----3-3-----3-3-|-------10-10-------10-10-|-------10-10-11-11-11-11-|-11---|
|-3-3-3-3-3-3-3-3-|-3-3-3-3-3-3-3-3-|-10-10-10-10-10-10-10-10-|-10-10-10-10-11-11-11-11-|-12---|
|-3-3-3-3-3-3-3-3-|-3-3-3-3-3-3-3-3-|-10-10-10-10-10-10-10-10-|-10-10-10-10-11-11-11-11-|-12---|
|-1-1-----1-1-----|-1-1-----1-1-----|-8--8--------8--8--------|-8--8--------9--9--9--9--|-10---|
|-----------------|-----------------|-------------------------|-------------------------|------|

Gm
You and me when the sun goes down
N.C.
You and me when the whip goes 'round
            Bb
It's always you and me, we're bows and arrows
F   F#  Gm
You            
Submit corrections


        Bows And Arrows  lessons Hard to play? Try these video lessons and learn fast Bows And Arrows  lessons
        
↑ Back to top | Tablatures and chords for acoustic guitar and electric guitar, ukulele, drums are parodies/interpretations of the original songs. You may use it for private study, scholarship, research or language learning purposes only