Home » J » Jw Broadcasting »

Jw Broadcasting - The Life Of Pioneer Ukulele

Artists:  A B C D E F G H I J K L M N O P Q R S T U V W X Y Z # 

The Life Of Pioneer Ukulele

(ver. 1) Click to play this song!
Jw Broadcasting
[Intro]
 
A|---------------------------------------------------------------------------|
E|-----0-------1-------3-----------0---------------0-------1-----3-----------|
C|---------------------------0-----------2---------------------------0-------|
G|---------------------------------------------------------------------------|
 
 
[Verse 1]
 
A|---------------------------------------------------------------------------|
E|-----0------1--------3-----------0---------------0----1-----3--------0-----|
C|---------------------------0------------------------------------0--------2-|
G|---------------------------------------2-----------------------------------|
 
A|-----------------------------------------0-----2-----3-----2-----3--------------0--|
E|-----0------1-----3-----0-----1-----3--------------------------------0-------------|
C|------------------------------------------------------------------------2--0-------|
G|-----------------------------------------------------------------------------------|
 
 
A|------------------0----------------0-----2-----3-----5------2-----0--------|
E|-----1-----3-----------1-----3-------------------------------------------3-|
C|---------------------------------------------------------------------------|
G|---------------------------------------------------------------------------|
 
A|-----0-----2-----3-----2-----0------2--------------0----------------3--7--5|
E|------------------------------------------3----0--------3----1-----3-------|
C|---------------------------------------------------------------------------|
G|---------------------------------------------------------------------------|
 
 
A|----3----2----3-----------7-----5--------3----5-----7----5----3------------|
E|-------------------3-----------------------------------------------3-------|
C|---------------------------------------------------------------------------|
G|---------------------------------------------------------------------------|
 
A|---------------0-----2-----3-----3-----7-----3------5----------------------|
E|---0-----3-----------------------------------------------------------------|
C|---------------------------------------------------------------------------|
G|---------------------------------------------------------------------------|
 
 
A|-----3-----2-----3-----------7-----5------------3----5----7-----5-----3----|
E|-----------------------3-------------------------------------------------3-|
C|---------------------------------------------------------------------------|
G|---------------------------------------------------------------------------|
 
A|--------------0-----2-----3-----3-----7-----3------5------------3----2----3|
E|----0----3-----------------------------------------------------------------|
C|---------------------------------------------------------------------------|
G|---------------------------------------------------------------------------|
            
Submit corrections

↑ Back to top | Tablatures and chords for acoustic guitar and electric guitar, ukulele, drums are parodies/interpretations of the original songs. You may use it for private study, scholarship, research or language learning purposes only