» » »

Justin Timberlake - True Colors Tabs

Artists:  A B C D E F G H I J K L M N O P Q R S T U V W X Y Z # 

True Colors Tabs

(ver. 2) Click to play this song!
Justin Timberlake
 Rating:
4.3/5 (9 votes)


 True Colors  lessons Tabs too difficult? Try these video lessons and learn fast
 
                E ---3--------3--3--------3--3----------------------|
B ---1--0--1-----0--0--1-----1--0--1------0--1------|
G ---2-----------0-----------0---------2--------2---|
D ---2-----------0-----------2---------3------------|
A ---0-----------2-----------3----------------------|
E --------------------------------------------------|
     Am         G/B          C         F

E ---3--------3--3--------3--3----------------------|
B ---1--0--1-----0--0--1-----1--0--1------0--1------|
G ---2-----------0-----------0---------2--------2---|
D ---2-----------0-----------2---------3------------|
A ---0-----------2-----------3----------------------|
E --------------------------------------------------|
     Am         G/B          C         F


E --------------------------------------------------|
B --------1-----------0-----------1-----------1-----|
G --------2-----------0-----------0-----------2-----|
D -----2-----2-----0-----0-----2-----2-----3-----3--|
A --0-----------2-----------3-----------3-----------|
E --------------------------------------------------|
    Am         G/B          C           F

You with the sad eyes, don't be discouraged...

E --------------------------------------------------|
B --------1-----------0-----------1-----------1-----|
G --------2-----------0-----------0-----------2-----|
D -----2-----2-----0-----0-----2-----2-----3-----3--|
A --0-----------2-----------3-----------3-----------|
E --------------------------------------------------|
    Am         G/B          C           F

Oh I realize, it's hard to take courage

E --------------------------------------------------|
B --------1-----------0-----------1-----------1-----|
G --------2-----------0-----------0-----------2-----|
D -----2-----2-----0-----0-----2-----2-----3-----3--|
A --0-----------2-----------3-----------3-----------|
E --------------------------------------------------|
    Am         G/B          C           F

In a world full of people, you can lose sight of it all

E --------------------------------------------------|
B --------1-----------0-----------------------------|
G --------2-----------0--------2--0-----0-----------|
D -----2-----2-----0-----0-----3--3-----2-----------|
A --0-----------2--------------3--3-----3-----------|
E --------------------------------------------------|
    Am         G/B             F        C

The darkness inside you, can make you feel so small


E --------------------------------------------------|
B --------1-----------0-----------1-----------1-----|
G --------2-----------0-----------0-----------2-----|
D -----2-----2-----0-----0-----2-----2-----3-----3--|
A --0-----------2-----------3-----------3-----------|
E --------------------------------------------------|
    Am         G/B          C           F

Show me a smile then, don't be unhappy...

E --------------------------------------------------|
B --------1-----------0-----------1-----------1-----|
G --------2-----------0-----------0-----------2-----|
D -----2-----2-----0-----0-----2-----2-----3-----3--|
A --0-----------2-----------3-----------3-----------|
E --------------------------------------------------|
    Am         G/B          C           F

Can't remember when, I last saw you laughing

E --------------------------------------------------|
B --------1-----------0-----------1-----------1-----|
G --------2-----------0-----------0-----------2-----|
D -----2-----2-----0-----0-----2-----2-----3-----3--|
A --0-----------2-----------3-----------3-----------|
E --------------------------------------------------|
    Am         G/B          C           F

This world makes you crazy, and you've taken all you can bear

E --------------------------------------------------|
B --------1-----------0-----------------------------|
G --------2-----------0--------2--0-----0-----------|
D -----2-----2-----0-----0-----3--3-----2-----------|
A --0-----------2--------------3--3-----3-----------|
E --------------------------------------------------|
    Am         G/B             F        C

Just call me up, 'cause I will always be there


E --------------------------------------------------|
B --------1-----------1-----------0-----------0-----|
G --------2-----------0-----------0-----------0-----|
D -----3-----3-----2-----2-----0-----0-----0-----0--|
A --3-----------3-----------------------------------|
E --------------------------3-----------3-----------|
    F           C           G           G

I see your true colors, shining through...

E --------------------------------------------------|
B --------1-----------1-----------0-----------0-----|
G --------2-----------0-----------0-----------0-----|
D -----3-----3-----2-----2-----0-----0-----0-----0--|
A --3-----------3-----------------------------------|
E --------------------------3-----------3-----------|
    F           C           G           G

I see your true colors, and that's why I love you...

E --------------------------------------------------|
B --------1-----------1-----------0-----------1-----|
G --------2-----------0-----------1-----------2-----|
D -----3-----3-----2-----2-----2-----2-----2-----2--|
A --3-----------3-----------------------0-----------|
E --------------------------0-----------------------|
    F           C           E           Am

So don't be afraid to let them show...

E --------------------------------------------------|
B --------1-----------1-----------1-----------1-----|
G --------2-----------0-----------2-----------0-----|
D -----3-----3-----2-----2-----3-----3-----2-----2--|
A --3-----------3-----------3-----------3-----------|
E --------------------------------------------------|
    F           C           F           C

True colors, true colors...

E --------------------------------------------------|
B --------0-----------0-----------0-----------0-----|
G --------0-----------0-----------0-----------0-----|
D -----0-----0-----0-----0-----0-----0-----0-----0--|
A --------------------------------------------------|
E --3-----------3-----------3-----------3-----------|
    G           G           G           G

Are beautiful

E --------------------------------------------------|
B --------1-----------1-----------0-----------0-----|
G --------2-----------0-----------0-----------0-----|
D -----3-----3-----2-----2-----0-----0-----0-----0--|
A --3-----------3-----------------------------------|
E --------------------------3-----------3-----------|
    F           C           G           G

I see your true colors, shining through...

E --------------------------------------------------|
B --------1-----------1-----------0-----------0-----|
G --------2-----------0-----------0-----------0-----|
D -----3-----3-----2-----2-----0-----0-----0-----0--|
A --3-----------3-----------------------------------|
E --------------------------3-----------3-----------|
    F           C           G           G

I see your true colors, and that's why I love you...

E --------------------------------------------------|
B --------1-----------1-----------0-----------1-----|
G --------2-----------0-----------1-----------2-----|
D -----3-----3-----2-----2-----2-----2-----2-----2--|
A --3-----------3-----------------------0-----------|
E --------------------------0-----------------------|
    F           C           E           Am

So don't be afraid to let them show...

E --------------------------------------------------|
B --------1-----------1-----------1-----------1-----|
G --------2-----------0-----------2-----------0-----|
D -----3-----3-----2-----2-----3-----3-----2-----2--|
A --3-----------3-----------3-----------3-----------|
E --------------------------------------------------|
    F           C           F           C

You're true colors, true colors...

E --------------------------------------------------|
B --------0-----------0-----------0-----------0-----|
G --------0-----------0-----------0-----------0-----|
D -----0-----0-----0-----0-----0-----0-----0-----0--|
A --------------------------------------------------|
E --3-----------3-----------3-----------3-----------|
    G           G           G           G

Are beautiful


E ---3--------3--3--------3--3----------------------|
B ---1--0--1-----0--0--1-----1--0--1------0--1------|
G ---2-----------0-----------0---------2--------2---|
D ---2-----------0-----------2---------3------------|
A ---0-----------2-----------3----------------------|
E --------------------------------------------------|
     Am         G/B          C         F

Like a rainbow

E ---3--------3--3--------3--3----------------------|
B ---1--0--1-----0--0--1-----1--0--1------0--1------|
G ---2-----------0-----------0---------2--------2---|
D ---2-----------0-----------2---------3------------|
A ---0-----------2-----------3----------------------|
E --------------------------------------------------|
     Am         G/B          C         F

Ooh ooh ooh like a rainbow (repeat riff if necessary)


E --------------------------------------------------|
B --------1-----------0-----------1-----------1-----|
G --------2-----------0-----------0-----------2-----|
D -----2-----2-----0-----0-----2-----2-----3-----3--|
A --0-----------2-----------3-----------3-----------|
E --------------------------------------------------|
    Am         G/B          C           F

Ooh can't remember when, I last saw you laughing

E --------------------------------------------------|
B --------1-----------0-----------1-----------1-----|
G --------2-----------0-----------0-----------2-----|
D -----2-----2-----0-----0-----2-----2-----3-----3--|
A --0-----------2-----------3-----------3-----------|
E --------------------------------------------------|
    Am         G/B          C           F

This world makes you crazy, taking all you can bear

E --------------------------------------------------|
B --------1-----------0-----------------------------|
G --------2-----------0--------2--0-----0-----------|
D -----2-----2-----0-----0-----3--3-----2-----------|
A --0-----------2--------------3--3-----3-----------|
E --------------------------------------------------|
    Am         G/B             F        C

Just call me up, 'cause I'll always be there


E --------------------------------------------------|
B --------1-----------1-----------0-----------0-----|
G --------2-----------0-----------0-----------0-----|
D -----3-----3-----2-----2-----0-----0-----0-----0--|
A --3-----------3-----------------------------------|
E --------------------------3-----------3-----------|
    F           C           G           G

And I see your true colors, shining through...

E --------------------------------------------------|
B --------1-----------1-----------0-----------0-----|
G --------2-----------0-----------0-----------0-----|
D -----3-----3-----2-----2-----0-----0-----0-----0--|
A --3-----------3-----------------------------------|
E --------------------------3-----------3-----------|
    F           C           G           G

I see your true colors, and that's why I love you...

E --------------------------------------------------|
B --------1-----------1-----------0-----------1-----|
G --------2-----------0-----------1-----------2-----|
D -----3-----3-----2-----2-----2-----2-----2-----2--|
A --3-----------3-----------------------0-----------|
E --------------------------0-----------------------|
    F           C           E           Am

So don't be afraid, to let them show...

E --------------------------------------------------|
B --------1-----------1-----------1-----------1-----|
G --------2-----------0-----------2-----------0-----|
D -----3-----3-----2-----2-----3-----3-----2-----2--|
A --3-----------3-----------3-----------3-----------|
E --------------------------------------------------|
    F           C           F           C

Your true colors, true colors...

E --------------------------------------------------|
B --------0-----------0-----------0-----------0-----|
G --------0-----------0-----------0-----------0-----|
D -----0-----0-----0-----0-----0-----0-----0-----0--|
A --------------------------------------------------|
E --3-----------3-----------3-----------3-----------|
    G           G           G           G

Are beautiful


E ---3--------3--3--------3--3----------------------|
B ---1--0--1-----0--0--1-----1--0--1------0--1------|
G ---2-----------0-----------0---------2--------2---|
D ---2-----------0-----------2---------3------------|
A ---0-----------2-----------3----------------------|
E --------------------------------------------------|
     Am         G/B          C         F

Like a rainbow

E ---3--------3--3--------3--3----------------------|
B ---1--0--1-----0--0--1-----1--0--1------0--1------|
G ---2-----------0-----------0---------2--------2---|
D ---2-----------0-----------2---------3------------|
A ---0-----------2-----------3----------------------|
E --------------------------------------------------|
     Am         G/B          C         F

Ooh ooh ooh like a rainbow (repeat if necessary)            
Submit corrections



        True Colors  lessons Hard to play? Try these video lessons and learn fast True Colors  lessons
        
↑ Back to top | Tablatures and chords for acoustic guitar and electric guitar, ukulele, drums are parodies/interpretations of the original songs. You may use it for private study, scholarship, research or language learning purposes only