» » »

Justin Timberlake - SeñOrita Tabs

Artists:  A B C D E F G H I J K L M N O P Q R S T U V W X Y Z # 

SeñOrita Tabs

(ver. 7) Click to play this song!
Justin Timberlake
 Rating:
4.3/5 (21 vote)


 SeñOrita lessons Tabs too difficult? Try these video lessons and learn fast
 
                [Intro/Verse]
e|--7---6---------------------------------------------------------------------|
B|--9---9----9---7----6-------4-----------------------------------------------|
G|--7---7----7---7----6---6---4-----------------------------------------------|
D|--8---8----8---8----4---4---4-----------------------------------------------|
A|--------------------6-------------------------------------------------------|
E|----------------------------4-----------------------------------------------|

[Bridge] 
(Chords)
When I look into your eyes....                  I work harder for you girl...
e|--5-------------5-------------3----------------------------------------------|
B|--7-----5-------7----5--------5------4--------5------------------------------|
G|--6-----6-------6----6--------4------4--------5------------------------------|
D|--7-----7-------7----7--------5------5--------5------------------------------|
A|--5-----7-------5----7--------3------5---------------------------------------|
E|--------5------------5---------------3--------5------------------------------|
  DmAJ7   A                   Cmaj7    G       Amin7            
Submit corrections



        SeñOrita lessons Hard to play? Try these video lessons and learn fast SeñOrita lessons
        
↑ Back to top | Tablatures and chords for acoustic guitar and electric guitar, ukulele, drums are parodies/interpretations of the original songs. You may use it for private study, scholarship, research or language learning purposes only