» » »

Justin Bieber - Ill Show You Tabs

Artists:  A B C D E F G H I J K L M N O P Q R S T U V W X Y Z # 

Ill Show You Tabs

(ver. 1) Click to play this song!
Justin Bieber
 Rating:
4.3/5 (21 vote)

 Ill Show You  lessons Tabs too difficult? Try these video lessons and learn fast
 
                [Intro]

e|---------------------------------------------------|
B|-----------0-----------0------------0--------0-----| 
G|--------0-----0-----0-----0------0-----0--------0--|    
D|----10------------9-----------3-----------3--------|
A|---------------------------------------------------|
E|---------------------------------------------------|


e|---------------------------------------------------------------|
B|-----------0-------------------0------------0----------0-------|
G|--------0-----0-------------0-----0------0-----0-----------0---|
D|----7------------7/9(h10p)------------3------------3-----------|
A|---------------------------------------------------------------|
E|---------------------------------------------------------------|  


[Verse 1]

e|---------------------------------------|
B|---------------------0-----------------|
G|--------0---------0-----0--------0-----|
D|-----3-----3------------------3-----3--|
A|---------------------------------------|
E|--1-------------1----------1-----------|

e|------------------------------------------------------------|
B|------0-----0---------0----------0----------0----------0----|
G|------0-----0-------0---0-----0-----0-----0---0-----0-----0-|
D|------------------------------------------------------------|
A|-----------------0---------0-----------0----------3---------|
E|----1-----3-------------------------------------------------|

e|---------------------------------------|
B|---------------------0-----------------|
G|--------0---------0-----0--------0-----|
D|-----3-----3------------------3-----3--|
A|---------------------------------------|
E|--1-------------1----------1-----------|

e|-------------------------------0------------------------------|
B|------0-----0---------0-------------------0------------0------|
G|------0-----0-------0---0----0---0-----0-----0------0-----0---|
D|--------------------------------------------------------------|
A|-----------------0----------0--------0-----------3------------|
E|----1-----3---------------------------------------------------|

e|---------------------------------------|
B|---------------------0-----------------|
G|--------0---------0-----0--------0-----|
D|-----3-----3------------------3-----3--|
A|---------------------------------------|
E|--1-------------1----------1-----------|

e|------------------------------------------------------------|
B|------0-----0---------0----------0----------0----------0----|
G|------0-----0-------0---0-----0-----0-----0---0-----0-----0-|
D|------------------------------------------------------------|
A|-----------------0---------0-----------0----------3---------|
E|----1-----3-------------------------------------------------|

e|---------------------------------------|
B|---------------------0-----------------|
G|--------0---------0-----0--------0-----|
D|-----3-----3------------------3-----3--|
A|---------------------------------------|
E|--1-------------1----------1-----------|

e|----------------------------------------------|
B|---0---0---------0----------0----------0------|
G|---0---0-------0---0-----0-----0----0---------|
D|----------------------------------3-----------|
A|-------------0--------------------------------|
E|---1---3-------------3-----------1------------|

knock, knock 


[Chorus]

e|---------------0------------------------0--------|
B|--0-------0--------0--0----------0---------------|
G|-----0------0--------------0--------0------------|
D|-------3----------------------3------------------|
A|-------------------------------------------------|
E|--1------------1---1--1-----------------1--------|

e|-----------------------0----------------------0-----|
B|----0---0--------0--------0---0------------------0--|
G|----0-------0-------0------------0-------0----------|
D|--------------2---------------------2------0--------|
A|--------0--------------0--0---3---------------3--3--|
E|----3-----------------------------------------------|

e|---------------0------------------------0--------|
B|--0-------0--------0--0----------0---------------|
G|-----0------0--------------0--------0------------|
D|-------3----------------------3------------------|
A|-------------------------------------------------|
E|--1------------1---1--1-----------------1--------|

e|-----------------------0----------------------3-----|
B|----0---0--------0--------0---0---------------------|
G|----0-------0-------0------------0-------0----------|
D|--------------2---------------------2------0--------|
A|--------0--------------0--0-------------------------|
E|----3-------------------------3---------------3-----|


[Verse 2]

e|---------------------------------------|
B|---------------------0-----------------|
G|--------0---------0-----0--------0-----|
D|-----3-----3------------------3-----3--|
A|---------------------------------------|
E|--1-------------1----------1-----------|

e|------------------------------------------------------------|
B|------0-----0---------0----------0----------0----------0----|
G|------0-----0-------0---0-----0-----0-----0---0-----0-----0-|
D|------------------------------------------------------------|
A|-----------------0---------0-----------0----------3---------|
E|----1-----3-------------------------------------------------|

e|---------------------------------------|
B|---------------------0-----------------|
G|--------0---------0-----0--------0-----|
D|-----3-----3------------------3-----3--|
A|---------------------------------------|
E|--1-------------1----------1-----------|

e|-------------------------------0------------------------------|
B|------0-----0---------0-------------------0------------0------|
G|------0-----0-------0---0----0---0-----0-----0------0-----0---|
D|--------------------------------------------------------------|
A|-----------------0----------0--------0-----------3------------|
E|----1-----3---------------------------------------------------|

e|---------------------------------------|
B|---------------------0-----------------|
G|--------0---------0-----0--------0-----|
D|-----3-----3------------------3-----3--|
A|---------------------------------------|
E|--1-------------1----------1-----------|

e|------------------------------------------------------------|
B|------0-----0---------0----------0----------0----------0----|
G|------0-----0-------0---0-----0-----0-----0---0-----0-----0-|
D|------------------------------------------------------------|
A|-----------------0---------0-----------0----------3---------|
E|----1-----3-------------------------------------------------|

e|---------------------------------------|
B|---------------------0-----------------|
G|--------0---------0-----0--------0-----|
D|-----3-----3------------------3-----3--|
A|---------------------------------------|
E|--1-------------1----------1-----------|

e|----------------------------------------------|
B|---0---0---------0----------0----------0------|
G|---0---0-------0---0-----0-----0----0---------|
D|----------------------------------3-----------|
A|-------------0--------------------------------|
E|---1---3-------------3-----------1------------|

knock, knock 


[Chorus]

e|---------------0------------------------0--------|
B|--0-------0--------0--0----------0---------------|
G|-----0------0--------------0--------0------------|
D|-------3----------------------3------------------|
A|-------------------------------------------------|
E|--1------------1---1--1-----------------1--------|

e|-----------------------0----------------------0-----|
B|----0---0--------0--------0---0------------------0--|
G|----0-------0-------0------------0-------0----------|
D|--------------2---------------------2------0--------|
A|--------0--------------0--0---3---------------3--3--|
E|----3-----------------------------------------------|

e|---------------0------------------------0--------|
B|--0-------0--------0--0----------0---------------|
G|-----0------0--------------0--------0------------|
D|-------3----------------------3------------------|
A|-------------------------------------------------|
E|--1------------1---1--1-----------------1--------|

e|-----------------------0----------------------3-----|
B|----0---0--------0--------0---0---------------------|
G|----0-------0-------0------------0-------0----------|
D|--------------2---------------------2------0--------|
A|--------0--------------0--0-------------------------|
E|----3-------------------------3---------------3-----|


[Outro]

e|---------------------------------------------------|
B|-----------0-----------0------------0--------0-----| 
G|--------0-----0-----0-----0------0-----0--------0--|    
D|----10------------9-----------3-----------3--------|
A|---------------------------------------------------|
E|---------------------------------------------------|


e|----------------------------------------------------------------1--|
B|-----------0-------------------0------------0----------0--------3--|
G|--------0-----0-------------0-----0------0-----0-----------0----3--|
D|----7------------7/9(h10p)------------3------------3---------------|
A|-------------------------------------------------------------------|
E|-------------------------------------------------------------------|
            
Submit corrections


        Ill Show You  lessons Hard to play? Try these video lessons and learn fast Ill Show You  lessons
        
↑ Back to top | Tablatures and chords for acoustic guitar and electric guitar, ukulele, drums are parodies/interpretations of the original songs. You may use it for private study, scholarship, research or language learning purposes only