» » »

Justin Bieber - Despacito Tabs

Artists:  A B C D E F G H I J K L M N O P Q R S T U V W X Y Z # 

Despacito Tabs

(ver. 1) Click to play this song!
Justin Bieber
 Rating:
4.3/5 (22 votes)

 Despacito  lessons Tabs too difficult? Try these video lessons and learn fast
 
                [Intro]
e|-7--10p9p7\6--7--|-7--9--10--12--14----14----14----14-|
B|-7---------------|-7----------------15----15----15----|
G|-7---------------|-7----------------------------------|
D|-----------------|------------------------------------|
A|-----------------|------------------------------------|
E|-----------------|------------------------------------|

e|----10------9----7---------|
B|---------------------------|
G|-3/11----11\9--9\7---------|
D|---------------------------|
A|---------------------------|
E|---------------------------|

[Chorus]
e|----------------------------|----------------------------|------------------------|
B|----------------------------|----------------------------|---------------5-5------|
G|-7-6-4--------4-4-4-2-4-0---|-0--0--0--4--4--4--6--7-----|--------7-7-7------6----|  
D|-------4-4-4----------------|-------------------------7--|-7-7-7------------------| 
A|----------------------------|----------------------------|------------------------|
E|----------------------------|----------------------------|------------------------|

e|----------------------------|----------------------------|---------------------------|
B|----------------------------|----------------------------|---------------5-5---------|
G|-7-6-4--------4-4-4-2-4-0---|-0--0--0--4--4--4--6--7-----|--------7-7-7------6--7-6--|  
D|-------4-4-4----------------|-------------------------7--|-7-7-7---------------------| 
A|----------------------------|----------------------------|---------------------------|
E|----------------------------|----------------------------|---------------------------|


e|---------------|-----------------5------|----------------|
B|-7-5-7-5-7-5-7-|-7-8-8-----8-8-8----8-7-|-7-7-7-8-7-5----| 
G|---------------|------7-7---------------|----------------|
D|---------------|------------------------|----------------|
A|---------------|------------------------|----------------|
E|---------------|------------------------|----------------|

e|---------------|-----------------5------|-----5----------|
B|-7-5-7-5-7-5-7-|-7-8-8-----8-8-8----8-7-|-7-7---8-7-5----| 
G|---------------|------7-7---------------|----------------|
D|---------------|------------------------|----------------|
A|---------------|------------------------|----------------|
E|---------------|------------------------|----------------|
            
Submit corrections


        Despacito  lessons Hard to play? Try these video lessons and learn fast Despacito  lessons
        
↑ Back to top | Tablatures and chords for acoustic guitar and electric guitar, ukulele, drums are parodies/interpretations of the original songs. You may use it for private study, scholarship, research or language learning purposes only