» » »

Justin Bieber - Cold Water Tabs

Artists:  A B C D E F G H I J K L M N O P Q R S T U V W X Y Z # 

Cold Water Tabs

(ver. 1) Click to play this song!
Justin Bieber
 Rating:
4.1/5 (31 vote)

 Cold Water  lessons Tabs too difficult? Try these video lessons and learn fast
 
                e----------------------------------------------------3p2------|
B--------------------------------------5-------------3--------|
G----------2--------------6------------6----------2-----------|
D----------4--------------7---------6---------0---------------|
A-------4--------------7--------4-----------------------------|
E---2-------------5-------------------------------------------|


or a slightly different version


e----------x----------------------x----------3p2---------|
B----------x-------------------5--x----------3-----------|
G------2---x----------6--------6--x---------2------------|
D------4---x----------7--------6--x-------0--------------|
A------4---x--------7--------4----x----------------------|
E---2------x----5-----------------x----------------------|            
Submit corrections


        Cold Water  lessons Hard to play? Try these video lessons and learn fast Cold Water  lessons
        
↑ Back to top | Tablatures and chords for acoustic guitar and electric guitar, ukulele, drums are parodies/interpretations of the original songs. You may use it for private study, scholarship, research or language learning purposes only