» » »

Justice - Phantom Tabs

Artists:  A B C D E F G H I J K L M N O P Q R S T U V W X Y Z # 

Phantom Tabs

(ver. 1) Click to play this song!
Justice
 Rating:
4/5 (4 votes)

 Phantom lessons Tabs too difficult? Try these video lessons and learn fast
 
                (Part2)
		         Phantom Part II - Justice

Tuning:Drop D

Ok, well there are no good tabs of this song, just a few decent bits and pieces for the 
parts, but the leads posted are way off. So I sat down and tabbed it by ear, and trust 
it's 99% accurate, if not 100%.

The song starts with a rhythm loop which could be played like this.

Rhythm Loop-0:00
e|-----------------------------------------------------------------------------|
B|-----------------------------------------------------------------------------|
G|-----------------------------------------------------------------------------|
D|-----------------------------------------------------------------------------|
A|-------5-3/5------5-3/5------5-3/5------5-3/5--------------------------------|
E|-----------------------------------------------------------------------------|

Then comes the bass like rhythm, it can be played like this

Rhythm Bass-0:06
e|------------------------------------------------------------------------------|
B|------------------------------------------------------------------------------|
G|------------------------------------------------------------------------------|
D|--------2-3-5-----------------------------------------------------------------|
A|----5~~--------1-3-----5-3~-------------------5---5---5---5-------------------|
E|-------------------5~--------7-5~--3-5-7-0~~~---0---0---0---------------------|

This consists in the background for a long time, but we'll get to when the rhythm changes
Lead Guitar(Synth)-0:39
e|---------8-10-12-13--10-8-10~--13-15~--12----------8-10-12-----------------|
B|-7~--10~----------------------------------11-10-11~---------7~~------------|
G|---------------------------------------------------------------------------|
D|---------------------------------------------------------------------------|
A|---------------------------------------------------------------------------|
E|---------------------------------------------------------------------------|

e|--13~--13~-13~-13~---------------------------------------------------------|
B|---------------------------------------------------------------------------|
G|---------------------------------------------------------------------------|
D|---------------------------------------------------------------------------|
A|---------------------------------------------------------------------------|
E|---------------------------------------------------------------------------|

Now thats consistent for almost the whole song, but we cannot leave out that last part 
plays out during the last 50 seconds. The rhythm is the same as Phantom Part I, but there 
a new lead. Both of which shall be tabbed.

Rhythm Bass-2:33
e|---------------------------------------------------------------------------|
B|---------------------------------------------------------------------------|
G|---------------------------------------------------------------------------|
D|-0-0-0-0-------------------------------------------------------------------|
A|----------3-3-3--2-2-2-1~--0-0-0-0----------------0h3-5~-------------------|
E|------------------------------------5-5-5-3~--3-5--------------------------|

Lead(Synth)-2:33
e|---------------------------------------------------------------------------|
B|---------------------------------10~~--------------------------------------|
G|-10-9-10-7~--10-9-10~----10-9-10-------9-7-9-5~--9-7-9-10~-9~~-------------|
D|---------------------------------------------------------------------------|
A|---------------------------------------------------------------------------|
E|---------------------------------------------------------------------------|

And that is it. Phantom Part II tabbed out correctly, by ear, I believe it's pretty 
Please do enjoy. :)
            
Submit corrections


        Phantom lessons Hard to play? Try these video lessons and learn fast Phantom lessons
        
↑ Back to top | Tablatures and chords for acoustic guitar and electric guitar, ukulele, drums are parodies/interpretations of the original songs. You may use it for private study, scholarship, research or language learning purposes only