Home » J » Juli »

Juli - Kurz Vor Der Sonne Tabs

Artists:  A B C D E F G H I J K L M N O P Q R S T U V W X Y Z # 

Kurz Vor Der Sonne Tabs

(ver. 1) Click to play this song!
Juli
-------------------------------------------------------------------------------
-------------------------------------------------------------------------------

Tuning: EADGBE

VERSE 9x (0.00 - 0.24)
e|----------------|
B|--4-4-3-3-------|
G|----------3-3---|
D|----------------|
A|----------------|
E|----------------|

PRE-CHORUS 1x (0.24 - 0.36)
e|-----------------------------------------------|-----------------------------------------------|
B|-----------------------------------------------|-----------------------------------------------|
G|-----------------------------------------------|-----------------------------------------------|
D|--------7-----------8----------10---10---10----|--------7-----------8-----10-------------------|
A|-----5-----5-----6-----6-----8----8----8----8--|-----5-----5-----6-----6--8--------------------|
E|--3-----------4-----------6--------------------|--3-----------4-----------6--------------------|
                                                                         
CHORUS 4x (0.36 - 0.45)
e|-------------------------------------------------------------------|
B|-------------------------------------------------------------------|
G|-------------------------------------------------------------------|
D|--5-5-5-5-5-5-5-5-8-8-7-7-7-7-7-7----------------------------------|
A|--3-3-3-3-3-3-3-3-5-5-5-5-5-5-5-5-6-6-6-6-6-6-6-6-6-6-6-6-6-6-6-6--|
E|----------------------------------4-4-4-4-4-4-4-4-4-4-4-4-4-4-4-4--|
                    !!!

BRIDGE ?x (2.05-2.25)
e|--8-------8-------8-------8--|
B|--8-------8-------8-------8--|
G|-----------------------------|
D|-----------------------------|
A|-----------------------------|
E|-----------------------------|


| /  slide up
| \  slide down
| h  hammer-on
| p  pull-off
| ~  vibrato
| +  harmonic
| x  Mute note
===============================================================================
            
Submit corrections

↑ Back to top | Tablatures and chords for acoustic guitar and electric guitar, ukulele, drums are parodies/interpretations of the original songs. You may use it for private study, scholarship, research or language learning purposes only