Home » J » Juli »

Juli - Dieses Leben Tabs

Artists:  A B C D E F G H I J K L M N O P Q R S T U V W X Y Z # 

Dieses Leben Tabs

(ver. 1) Click to play this song!
Juli
-----------------------------------------------------------------------------
			     Juli – Dieses Leben
-----------------------------------------------------------------------------



Guitartunings:	 Rhythm EADGBe
	         Lead   EADGBe

INTRO: 

Rhythm: NC, then F#m C#m E B (2x)	
Lead:
e|--------7---------7-------7--|--------7---------7-------7--|
B|-----7---------7--------7----|--7--------------------------|
G|--9---------9---------9------|-----9-------9p8------9p8----|
D|-----------------------------|-----------------------------|
A|-----------------------------|-----------------------------|
E|-----------------------------|-----------------------------|  3x


VERSE I:

Rhythm: F#m  C#m  B  B (4x)
Lead: -

Mir ist kalt, mein Weg ist leer,

diese Nacht ist grau und kalt und schwer,
           
sie hält mich fest und gibt mich nicht mehr her.
      
Ich bin gefangen, ich wach' nicht auf

und die letzten Lichter gehen bald aus,

ich seh mich fallen, doch ich geb nicht auf


CHORUS:

Rhythm: F#m  C#m  E  B (4x)
Lead: 
e|--12-12-12-11--------------|--12-12-12-11--------------------|
B|----------------9--9h10p9--|----------------12---(12--12-12)-|
G|---------------------------|---------------------------------|
D|---------------------------|---------------------------------|
A|---------------------------|---------------------------------|
E|---------------------------|---------------------------------|

e|--12-12-12-11--------------|--12-12-12-----------------------|
B|----------------9--9h10p9--|----------------12---------------|
G|---------------------------|---------------------------------|
D|---------------------------|---------------------------------|
A|---------------------------|---------------------------------|
E|---------------------------|---------------------------------| 2x

Denn ich liebe dieses Leben,

ich liebe den Moment, in dem man fällt.

Ich liebe dieses Leben,

und ich liebe diesen Tag, ich liebe diese Welt     (2x)


VERSE II: 

Rhythm: F#m  C#m  B  B (4x)
Lead: quite background notes
e|--12----14----11h12p11----9---11--|
B|----------------------------------|
G|----------------------------------|
D|----------------------------------|
A|----------------------------------|
E|----------------------------------|

e|--12----11----12----14------------|
B|----------------------------------|
G|----------------------------------|
D|----------------------------------|
A|----------------------------------|
E|----------------------------------|
 
Gib mir die Kraft gib mir das Herz

nimm mir all die Hoffnung und all den Schmerz

aus meiner Hand und gib sie nicht mehr her.

Was soll das sein, wo soll das hin,

wo sind meine großen Helden hin,

auch wenn wir gehen, weiß ich nicht wohin.


CHORUS:

Rhythm: F#m C#m E B (4x)
Lead: same as first time

Denn ich liebe dieses Leben,

ich liebe den Moment, in dem man fällt.

Ich liebe dieses Leben,

und ich liebe diesen Tag, ich liebe diese (Welt)--->Break


INTERLUDE:

Rhythm: F#m  C#m  E  B (2x)
Lead:
e|-------------------7----|------------------------|
B|--9---10---9---------9--|--9---10---9------------|
G|---------------9--------|---------------9---8-9--|
D|------------------------|------------------------|
A|------------------------|------------------------|
E|------------------------|------------------------| 

e|-------------------7----|-------------------7----|
B|--9---10---9---------9--|--9---10---9---------9--|
G|---------------9--------|---------------9--------|
D|------------------------|------------------------|
A|------------------------|------------------------|
E|------------------------|------------------------| 


BREAK:

Part I:
Both Guitars: F#m  F#m E B (4x) fast strumming

Ohh ...    Dada dehda da
Part II:

Rhythm: F#m  C#m  E  B (2x)
Lead:
e|--------7---------7-------7--|--------7---------7-------7--|
B|-----7---------7--------7----|--7--------------------------|
G|--9---------9---------9------|-----9-------9p8------9p8----|
D|-----------------------------|-----------------------------|
A|-----------------------------|-----------------------------|
E|-----------------------------|-----------------------------|

Weiß ich nicht wohin, auch wenn ich geh'

wenn ich geh'.


CHORUS:

Rhythm: F#m C#m E B (4x)
Lead: same as first time

Denn ich liebe dieses Leben,

ich liebe den Moment, in dem man fällt.

Ich liebe dieses Leben,

und ich liebe diesen Tag, ich liebe diese (Welt)--->Outro


OUTRO:

Lead: -
Rhythm: 
e|--12--11-----------|--12--11------------|
B|-----------9-hold--|-----------12-hold--|
G|-------------------|--------------------|
D|-------------------|--------------------|
A|-------------------|--------------------|
E|-------------------|--------------------| (Plus the background notes from VerseII)

   (F#m   E       B)
Ohh ...   Dada dehda da    (fade out)
            
Submit corrections

↑ Back to top | Tablatures and chords for acoustic guitar and electric guitar, ukulele, drums are parodies/interpretations of the original songs. You may use it for private study, scholarship, research or language learning purposes only