» » »

Jukebox The Ghost - The Popular Thing Tabs

Artists:  A B C D E F G H I J K L M N O P Q R S T U V W X Y Z # 

The Popular Thing Tabs

(ver. 1) Click to play this song!
Jukebox The Ghost
 Rating:
4/5 (4 votes)

 The Popular Thing lessons Tabs too difficult? Try these video lessons and learn fast
 
                -------------------------------------------------------------------------------
 THE POPULAR THING -- Jukebox the Ghost
 -------------------------------------------------------------------------------

 Tuning: EADGBe

 Intro/verse riff
 E|--10---8------------------|-8-----8------------|-12----10--------------|-10----10--|
 B|--8----8------------------|-8-----8------------|-10----10--------------|-10----10--|
 G|--9----9------------------|-9-----9------------|-10----10--------------|-10----10--|
 D|-10---10------------------|-10----10-----------|-12----12--------------|-12----12--|
 A|--------------------------|--------------------|-----------------------|-----------|
 E|--------------------------|--------------------|-----------------------|-----------|

 Prechorus Chorus
 E|-12-----|----------|-8------|--------|-1----1----1----1-----|-3----3----3----3----|
 B|-13-----|----------|-8------|--------|-1----1----1----1-----|-5----5----5----5----|
 G|-14-----|----------|-9------|--------|-2----2----2----2-----|-5----5----5----5----|
 D|-15-----|----------|-10-----|--------|-3----3----3----3-----|-5----5----5----5----|
 A|--------|----------|--------|--------|-3----3----3----3-----|-3----3----3----3----|
 E|--------|----------|--------|--------|-1----1----1----1-----|---------------------|


 E|-3----3----3----3----|---------------------|-1----1----1----1----|-3----3----3----3----|
 B|-3----3----3----3----|---------------------|-1----1----1----1----|-5----5----5----5----|
 G|-4----4----4----4----|---------------------|-2----2----2----2----|-5----5----5----5----|
 D|-5----5----5----5----|---------------------|-3----3----3----3----|-5----5----5----5----|
 A|-5----5----5----5----|---------------------|-3----3----3----3----|-3----3----3----3----|
 E|-3----3----3----3----|-8----7----5----3----|-1----1----1----1----|---------------------|


 E|-3----3----3----3----|---------------------|-13---13---13---13-----|-12---12---12---12---|
 B|-3----3----3----3----|---------------------|-13---13---13---13-----|-12---12---12---12---|
 G|-4----4----4----4----|---------------------|-14---14---14---14-----|-13---13---13---13---|
 D|-5----5----5----5----|---------------------|-15---15---15---15-----|-14---14---14---14---|
 A|-5----5----5----5----|---------------------|-15---15---15---15-----|-14---14---14---14---|
 E|-3----3----3----3----|-8----10---11---12---|-13---13---13---13-----|-12---12---12---12---|

                                                        Postchorus
 E|-10---10---7----7----|-8------|-12-----|--------|-8------|----------|
 B|-10---10---7----7----|-8------|-13-----|--------|-8------|----------|
 G|-10---10---8----8----|-9------|-14-----|--------|-9------|----------| |Repeat as needed
 D|-12---12---9----9----|-10-----|-15-----|--------|-10-----|----------|
 A|-12---12---9----9----|-10-----|--------|--------|--------|----------|
 E|-10---10---7----7----|-8------|--------|--------|--------|----------|

 After that, move on to the piano-heavy bridge:
 E|---------------------|
 B|---------------------|
 G|--5----5----5----5---|
 D|--5----5----5----5---|
 A|--3----3----3----3---|
 E|---------------------|


 E|----------------------|--------------------|---------------------|-------------------|
 B|----------------------|--------------------|---------------------|-------------------|
 G|----------------------|-7----7----7----7---|---------------------|-5----5----5----5--|
 D|-5----5----5----5-----|-7----7----7----7---|-5----5----5----5----|-5----5----5----5--|
 A|-5----5----5----5-----|-5----5----5----5---|-5----5----5----5----|-3----3----3----3--|
 E|-3----3----3----3-----|--------------------|-3----3----3----3----|-------------------|


 E|---------------------|----------------------|--------------------|---------------------|
 B|---------------------|----------------------|--------------------|---------------------|
 G|---------------------|-7----7----7----7-----|---------------------|-10---10---10---10--|
 D|-5----5----5----5----|-7----7----7----7-----|-5----5----5----5----|-10---10---10---10--|
 A|-5----5----5----5----|-5----5----5----5-----|-5----5----5----5----|-8----8----8----8---|
 E|-3----3----3----3----|----------------------|-3----3----3----3----|--------------------|

 Buildup as the bridge ends
 E|----------------------|---------------------|---------------------|-------------------|
 B|----------------------|---------------------|---------------------|-------------------|
 G|-9----9----9----9-----|-5----5----4----4----|-5----5----5----5----|-------------------|
 D|-9----9----9----9-----|-5----5----4----4----|-5----5----5----5----|-------------------|
 A|-7----7----7----7-----|-3----3----2----2----|-3----3----3----3----|-------------------|
 E|----------------------|---------------------|---------------------|-3----3----3----3--|

 Some lead is played here; improvise (C major/A minor)
 E|---------------------|---------------------|-------------------|
 B|---------------------|---------------------|-------------------|
 G|---------------------|---------------------|-------------------|
 D|---------------------|-5----5----5----5----|-5----5----5----5--|
 A|-5----5----5----5----|-5----5----5----5----|-5----5----5----5--|
 E|-3----3----3----3----|-3----3----3----3----|-3----3----3----3--|

 Now you can repeat what you know to finish the song. Simple!
            
Submit corrections


        The Popular Thing lessons Hard to play? Try these video lessons and learn fast The Popular Thing lessons
        
↑ Back to top | Tablatures and chords for acoustic guitar and electric guitar, ukulele, drums are parodies/interpretations of the original songs. You may use it for private study, scholarship, research or language learning purposes only