» » »

Jukebox The Ghost - Hold It In Tabs

Artists:  A B C D E F G H I J K L M N O P Q R S T U V W X Y Z # 

Hold It In Tabs

(ver. 1) Click to play this song!
Jukebox The Ghost
 Rating:
4.3/5 (6 votes)


 Hold It In lessons Tabs too difficult? Try these video lessons and learn fast
 
                
I got hooked on Jukebox the Ghost and I felt compelled to learn this song.
But there weren't any tabs anywhere on the net so I just transcribed it myself by ear
Enjoy. Many thanks to crmrz for tabbing out the Solo lick thing.

After Piano Intro:
e|-----------------------------------------------------------------------|
B|-----------------------------------------------------------------------|
G|-----------------------------------------------------------------------|
D|------3-3-----3-3-----3-3-----3-3-----3-3-----3-3-----3-3-----3-3------|
A|-----------------------------------------------------------------------|
E|--1-1-----1-1-----1-1-----1-1-----1-1-----1-1-----1-1-----1-1----------|

Verse x4:                                             *    **
e|----------------------------------------------------6----6-------------|
B|----------------------------------------------------6----6-------------|
G|--------------------------------------7-7-----7-7---7----7-------------|
D|------3-3-----3-3-----3-3-----3-3-------------------8----8-------------|
A|----------------------------------5-5-----5-5-------8----8-------------|
E|--1-1-----1-1-----1-1-----1-1-----------------------6----6-------------|

*Staccato
**Staccato on the record,
during live performances the guitarist slides down the neck
after playing this chord.

Prechorus x2:
e|----------------|
B|----------------|
G|----------------|
D|------3333------|
A|----------------|
E|--1-1------1-1--|

Chorus (chords are strummed semi-randomly, don't rely on this timing exactly):
e|--6---(6)-----6----6----6--x-6--(6)--1-1-(1)-1----1---|
B|--6---(6)-----6----6----6--x-6--(6)--1-1-(1)-1----1---|
G|--7---(7)-----7----7----7--x-7--(7)--2-2-(2)-2----2---|
D|--8---(8)-----8----8----8--x-8--(8)--3-3-(3)-3----3---|
A|--8---(8)-----8----8----8--x-8--(8)--3-3-(3)-3----3---|
E|--6---(6)---6-6--6-6--6-6--x-6--(6)--1-1-(1)-1--1-1---|

e|--6---(6)-----6----6----6--x-6--(6)--|
B|--6---(6)-----6----6----6--x-6--(6)--|
G|--7---(7)-----7----7----7--x-7--(7)--|
D|--8---(8)-----8----8----8--x-8--(8)--|
A|--8---(8)-----8----8----8--x-8--(8)--|
E|--6---(6)---6-6--6-6--6-6--x-6--(6)--|

Solo/Bridge: (thanks to crmrz for tabbing this out for me)
e|-------------------------------------------------------------------|
B|-----------------------------------------13-13-13-13---------10----|
G|-------10-10-------10-10-------10-10--12^-----------12p10----10----|
D|--10h12-------10h12-------10h12---------------------------12-------|
A|-------------------------------------------------------------------|
E|-------------------------------------------------------------------|

e|----8--8-----10--10--12--|
B|---------------------x---|
G|--/9--9--9/10--10----12--|
D|-------------------------|
A|-------------------------|
E|-------------------------|

Prechorus x4

Verse x2

Prechorus x2

Chorus

Solo/Bridge with modified ending:
e|-------------------------------------------------------------------|
B|-----------------------------------------13-13-13-13---------10----|
G|-------10-10-------10-10-------10-10--12^-----------12p10----10----|
D|--10h12-------10h12-------10h12---------------------------12-------|
A|-------------------------------------------------------------------|
E|-------------------------------------------------------------------|

e|----8--8-----6--6--5--|
B|-------------------x--|
G|--/9--9--9/7--7----5--|
D|----------------------|
A|----------------------|
E|----------------------|

Piano Melody x2: (Transcribed for Guitar, guitar verse can be played here, or just strum 
and D)
e|---13-13-13-13-12-12-12-12-10-10-10-----|
B|------------------------------------10--|
G|----------------------------------------|
D|----------------------------------------|
A|----------------------------------------|
E|----------------------------------------|

e|-----------13--13-----------------------|
B|--10-11-10--------10-11-10--10-13-10----|
G|----------------------------------------|
D|----------------------------------------|
A|----------------------------------------|
E|----------------------------------------|

Verse x2(no guitar for very first part of verse)

Prechorus x2

Chorus

Solo/Bridge (first ending)

Prechorus x2

Piano Melody

Outro (Guitar plays F staccato 4 times while the piano does its thing.
I guess you could play the piano part but the last lot of notes are too low for a 6 string.
A 7 string might be able to do the trick, I'm not sure. It's just a descent of the 
Minor scale in D.
It's something like this):
e|---13-12-10----------------------------------------------|
B|------------13-11-10-------------------------------------|
G|---------------------12-10-9-----------------------------|
D|-----------------------------12-10-----------------------|
A|-----------------------------------13-12-10--------------|
E|--------------------------------------------13-12-10-----|

Except with a lot more low notes after that last D.

That's it. Have fun!
            
Submit corrections



        Hold It In lessons Hard to play? Try these video lessons and learn fast Hold It In lessons
        
↑ Back to top | Tablatures and chords for acoustic guitar and electric guitar, ukulele, drums are parodies/interpretations of the original songs. You may use it for private study, scholarship, research or language learning purposes only