» » »

Jukebox The Ghost - Man In The Moon Tabs

Artists:  A B C D E F G H I J K L M N O P Q R S T U V W X Y Z # 

Man In The Moon Tabs

(ver. 1) Click to play this song!
Jukebox The Ghost
 Rating:
4/5 (4 votes)

 Man In The Moon lessons Tabs too difficult? Try these video lessons and learn fast
 
                Tuning: EADGBe

The face in the moon, I can see him in the water too
I can see it just the same as you, but I can't be there with you
Sleepy eyelids, I can write a song for you
I can buy you roses too, but I can't be there with you

e|-----------------12------9p7-----12------9p7-----12------------------------|
B|----7---7----10-----10------7-------10------7-------10---------------------|
G|------------------------------10--------------10---------7---7----6--------|  x2
D|----7-----7--11--------9------11-------9------11---------------------------|
A|--5---5-------9----------------9---------------9---------7-----7--7--------|
E|-------------------------------------------------------5---5------5--------|

Water leads to water

e|---------------------------------------------------------------------------|
B|----12----12----14----15-------11----11------------------------------------|
G|-------------------------------------------14----12------------------------|
D|----12-------12----12----12----12-------12----12----12---------------------|
A|-10----10-------10----10----10----10-------10----10------------------------|
E|---------------------------------------------------------------------------|

Water leads to rivers leads to oceans leads to you

e|----------------------------12---------------------------------------------|
B|---10---10----12------10------------10----15~------------------------------|
G|---------------------------------------------------------------------------|
D|---11------11----11------11----11------11----------------------------------|
A|-9----9--------9----9--------9----9--------9~------------------------------|
E|---------------------------------------------------------------------------|

But are you in love with someone
Are you in love with someone new

e|-----------------------------------|
B|-8-10-8-8-------8-10-8-8-----------|
G|----------9-7-6----------9-7-6-----|
D|-9--9-9-9-9-----9--9-9-9-9---------|
A|-7--7-7-7-7-7-7-7--7-7-7-7-7-7-----|
E|------------5-5------------5-5-----|

REPEAT            
Submit corrections


        Man In The Moon lessons Hard to play? Try these video lessons and learn fast Man In The Moon lessons
        
↑ Back to top | Tablatures and chords for acoustic guitar and electric guitar, ukulele, drums are parodies/interpretations of the original songs. You may use it for private study, scholarship, research or language learning purposes only