Home » J » Jukebox The Ghost »

Jukebox The Ghost - Good Day Tabs

Artists:  A B C D E F G H I J K L M N O P Q R S T U V W X Y Z # 

Good Day Tabs

(ver. 1) Click to play this song!
Jukebox The Ghost
Intro
                    
 E|---------------------------|--------|
 B|---------------------------|--------|
 G|---------------------------|--------| x 3
 D|-8---8---8---8-------------|--------|
 A|-8---8---8---8-------------|--------|
D#|-7---7---7---7-------------|--------|



Verse 1 ( x2 )

 E|---------------------------|--------|
 B|---------------------------|--------|
 G|---------------------------|--------| x 4
 D|-8---8---8---8-------------|--------|
 A|-8---8---8---8-------------|--------|
D#|-7---7---7---7-------------|--------|

 E|---------------------|------------------|--------|--|-----------------|--|
 B|-8----------8--------|-8-/-10----10-----|--------|--|-----------------|--|
 G|---------------------|------------------|--------|--|-----------------|--|
 D|---------------------|------------------|-8------|--|-8--8--8--8------|--|
 A|-6-----6--------6----|-6-/-8-----8------|-8------|--|-8--8--8--8------|--|
D#|---------------------|------------------|-7------|--|-7--7--7--7------|--|



Pre-Chorus 1

 E|-----------------|-----------------|-----------------|-------|
 B|-----------------|-6-6-6-6-6-6-6-6-|-----------------|-------|
 G|-8-8-8-8-8-8-8-8-|-7-7-7-7-7-7-7-7-|-8-8-8-8-8-8-8-8-|-8-----|
 D|-8-8-8-8-8-8-8-8-|-7-7-7-7-7-7-7-7-|-8-8-8-8-8-8-8-8-|-8-----|
 A|-6-6-6-6-6-6-6-6-|-8-8-8-8-8-8-8-8-|-6-6-6-6-6-6-6-6-|-6-----|
D#|-----------------|-----------------|-----------------|-------|



Chorus 1

 E|----------------------|------------------|----------------------|------------------|
 B|----------------------|------------------|----------------------|------------------|
 G|----------------------|------------------|----------------------|------------------|
 D|----------------------|------------8-----|----------------------|------------8-----|
 A|----------------------|------------------|----------------------|------------------|
D#|-7-----7-----7--7--7--|-7----7-----------|-7-----7-----7--7--7--|-7----7-----------|

 E|----------------------|------------------|----------------------|------------------|
 B|----------------------|------------------|----------------------|------------------|
 G|----------------------|------------------|----------------------|------------------|
 D|----------------------|------------------|----------------------|------------------|
 A|----------------------|-5--5--5--5--5----|----------------------|-5----------------|
D#|-0-----0-----0--0--0--|------------------|-0-----0-----0--0--0--|------------------|




Post-Chorus 1

 E|--------|--------|---------------------------|
 B|--------|--------|---------------------------|
 G|--------|--------|---------------------------|
 D|-8------|--------|-8---8---8---8-------------|
 A|-8------|--------|-8---8---8---8-------------|
D#|-7------|--------|-7---7---7---7-------------|



Verse 2

 E|---------------------------------|---------------------------------|
 B|---------------------------------|---------------------------------|
 G|-7---7---7---7---7---7---7---7---|-7---7---7---7---8---10--10--8---| x4
 D|-8---8---8---8---8---8---8---8---|-8---8---8---8---8---8---8---8---|
 A|---------------------------------|---------------------------------|
D#|---------------------------------|---------------------------------|

 E|---------------------------------|---------------------------------|
 B|-8---8---8---8---8---8---8---8---|-10--10--10--10--10--10--10--10--|
 G|---------------------------------|---------------------------------|
 D|-8---8---8---8---8---8---8---8---|-10--10--10--10--10--10--10--10--|
 A|-6---6---6---6---6---6---6---6---|-8---8---8---8---8---8---8---8---|
D#|---------------------------------|---------------------------------|

 E|--------|--------|---------------------------|
 B|--------|--------|---------------------------|
 G|--------|--------|---------------------------|
 D|-8------|--------|-8---8---8---8-------------|
 A|-8------|--------|-8---8---8---8-------------|
D#|-7------|--------|-7---7---7---7-------------|



Pre-Chorus 2

 E|-----------------|-----------------|-----------------|-------|
 B|-----------------|-6-6-6-6-6-6-6-6-|-----------------|-------|
 G|-8-8-8-8-8-8-8-8-|-7-7-7-7-7-7-7-7-|-8-8-8-8-8-8-8-8-|-8-----|
 D|-8-8-8-8-8-8-8-8-|-7-7-7-7-7-7-7-7-|-8-8-8-8-8-8-8-8-|-8-----|
 A|-6-6-6-6-6-6-6-6-|-8-8-8-8-8-8-8-8-|-6-6-6-6-6-6-6-6-|-6-----|
D#|-----------------|-----------------|-----------------|-------|



Chorus 2 ( x2 )

 E|----------------------|------------------|----------------------|------------------|
 B|----------------------|------------------|----------------------|------------------|
 G|----------------------|------------------|----------------------|------------------|
 D|----------------------|------------8-----|----------------------|------------8-----|
 A|----------------------|------------------|----------------------|------------------|
D#|-7-----7-----7--7--7--|-7----7-----------|-7-----7-----7--7--7--|-7----7-----------|

 E|----------------------|------------------|----------------------|------------------|
 B|----------------------|------------------|----------------------|------------------|
 G|----------------------|------------------|----------------------|------------------|
 D|----------------------|------------------|----------------------|------------------|
 A|----------------------|-5--5--5--5--5----|----------------------|-5----------------|
D#|-0-----0-----0--0--0--|------------------|-0-----0-----0--0--0--|------------------|



Solo

 E|--------|--------|-------------|-------------|-------------|
 B|-6------|--------|-------------|-------------|-------------|
 G|-7------|--------|-10b---10----|-8-----7-----|-8b----8-----|
 D|-8------|--------|-------------|-------------|-------------|
 A|-8------|--------|-------------|-------------|-------------|
D#|--------|--------|-------------|-------------|-------------|

 E|-------------|-------------|-------------|-------------|-------------|-10b---10----|
 B|-------------|-10b---10----|-8-----6-----|-------------|-------------|-------------|
 G|-------------|-------------|-------------|-8-----7-----|-------------|-------------|
 D|-7-----8-----|-------------|-------------|-------------|-7-----8-----|-------------|
 A|-------------|-------------|-------------|-------------|-------------|-------------|
D#|-------------|-------------|-------------|-------------|-------------|-------------|

 E|-8-----------|--------|
 B|-------11----|-10-----|
 G|-------------|--------|
 D|-------------|--------|
 A|-------------|--------|
D#|-------------|--------|



Bridge

 E|----------------|-----------------|-----------------|---------------|
 B|----------------|-----------------|-----------------|---------------|
 G|-7--------------|-------10--------|-7---------------|---------------|
 D|----------------|-------8---------|-----------------|---------------|
 A|----------------|-----------------|-----------------|---------------|
D#|-7--------------|-----------------|-7---------------|---------------|

 E|----------------|-----------------|-----------------|---------------|
 B|----------------|-----------------|-----------------|---------------|
 G|-7--------------|-------10--------|-7---------------|---------------|
 D|----------------|-------8---------|-----------------|---------------|
 A|----------------|-----------------|-----------------|---------------|
D#|-7--------------|-----------------|-7---------------|---------------|

 E|----------------|-----------------|-----------------|---------------|
 B|----------------|-----------------|-----------------|--------8------|
 G|-8--------------|---------7-------|-----------------|---------------|
 D|----------------|-10--------------|-----------------|---------------|
 A-----------------|-8---------------|-----------------|--------6------|
D#|-9--------------|---------7-------|-----------------|---------------|

 E|----------------|-----------------|-----------------|---------------|
 B|------10--------|-----------------|-----------------|---------------|
 G|----------------|-7---------------|-----------------|---------------|
 D|----------------|-----------------|-----------------|---------------|
 A|------8---------|-----------------|-----------------|---------------|
D#|----------------|-7---------------|-----------------|---------------|



Chorus 3

 E|-------------|-------------|-------------|-------------|
 B|-------------|-------------|-------------|-------------|
 G|-------------|-------------|-------------|-------------|  
 D|-------8-----|-------8-----|-------8-----|-------8-----|
 A|-------------|-------------|-------------|-------------|
D#|-7-----------|-7-----------|-7-----------|-7-----------|

 E|-------------|-------------|-------------|-------------|
 B|-------------|-------------|-------------|-------------|
 G|-------------|-------------|-------------|-------------|
 D|-------0-----|-------0-----|-------0-----|-------------|
 A|-------------|-------------|-------------|-------------|
D#|-0-----------|-0-----------|-0-----------|-2-----------|

 
 Repeat once |: :|
 E|----------------------|------------------|----------------------|------------------|
 B|-o--------------------|------------------|----------------------|------------------|
 G|----------------------|------------------|----------------------|------------------|
 D|----------------------|------------8-----|----------------------|------------8-----|
 A|-o--------------------|------------------|----------------------|------------------|
D#|-7-----7-----7--7--7--|-7----7-----------|-7-----7-----7--7--7--|-7----7-----------|

 E|----------------------|------------------|----------------------|------------------|
 B|----------------------|------------------|----------------------|---------------o--|
 G|----------------------|------------------|----------------------|------------------|
 D|----------------------|------------------|----------------------|------------------|
 A|----------------------|-5--5--5--5--5----|----------------------|-5-------------o--|
D#|-0-----0-----0--0--0--|------------------|-0-----0-----0--0--0--|------------------|



Outro

 E|---------------------------------|-----------------------|
 B|---------------------------------|-----------------------|
 G|---------------------------------|-----------------------|  x4
 D|---------------------------------|-----------------8-----|
 A|---------------------------------|-----------------------|
D#|-7-----------7-------7---7---7---|-7-------7-------------|

 E|--------|
 B|--------|
 G|--------|  x2
 D|-8------|
 A|-8------|
D#|-7------|            
Submit corrections

↑ Back to top | Tablatures and chords for acoustic guitar and electric guitar, ukulele, drums are parodies/interpretations of the original songs. You may use it for private study, scholarship, research or language learning purposes only