» » »

Judy Collins - Both Sides Now Bass

Artists:  A B C D E F G H I J K L M N O P Q R S T U V W X Y Z # 

Both Sides Now Bass

(ver. 1) Click to play this song!
Judy Collins
 Rating:
4.3/5 (18 votes)

 Both Sides Now lessons Tabs too difficult? Try these video lessons and learn fast
 
                  Intro
G|----------------|----------------|----------------|----------------|
D|--------3-1-----|--------3-1-----|--------3-1-----|--------3-1-----|
A|----4-----------|----4-----------|----4-----------|----4-----------|
E|2---------------|2---------------|2---------------|2---------------|

  Verse
      Bows  flows  angel hair       ice       castle in    air
G|----------------|----------------|----------------|----------------|
D|3-------1-------|--------1-------|--------3-------|----------------|
A|----------------|4---------------|4---------------|4-------4-------|
E|----------------|----------------|----------------|----------------|

G|----------------|----------------|----------------|----------------|
D|3-------1-------|--------1-------|3-------1-------|--------4-------|
A|----------------|4---------------|----------------|----------------|
E|----------------|----------------|----------------|----------------|

G|----------------|----------------|----------------|----------------|
D|3-------1-------|--------1-------|--------3-------|----------------|
A|----------------|4---------------|4---------------|4-------4-------|
E|----------------|----------------|----------------|----------------|

G|----------------|----------------|----------------|----------------|
D|3-------1-------|--------1-------|3-------1-------|--------4-------|
A|----------------|4---------------|----------------|----------------|
E|----------------|----------------|----------------|----------------|

  Chorus
G|----------------|----------------|----------------|----------------|
D|4-------1-------|4---------------|4---------------|4---------------|
A|----------------|--------4-------|--------4-------|--------4-------|
E|----------------|----------------|----------------|----------------|

G|----------------|----------------|----------------|----------------|
D|3-------1-------|----------------|3---------------|----------------|
A|----------------|4-------4-------|--------4-------|----------------|
E|----------------|----------------|----------------|2---------------|
                                                     Hold  
G|----------------|
D|----------------|
A|----------------|
E|----------------|

G|----------------|----------------|----------------|----------------|
D|--------3-1-----|--------3-1-----|--------3-1-----|--------3-1-----|
A|----4-----------|----4-----------|----4-----------|----4-----------|
E|2---------------|2---------------|2---------------|2---------------|

  Verse
G|----------------|----------------|----------------|----------------|
D|3-------1-------|--------1-------|--------3-------|----------------|
A|----------------|4---------------|4---------------|4-------4-------|
E|----------------|----------------|----------------|----------------|

G|----------------|----------------|----------------|----------------|
D|3-------1-------|--------1-------|3-------1-------|--------4-------|
A|----------------|4---------------|----------------|----------------|
E|----------------|----------------|----------------|----------------|

G|----------------|----------------|----------------|----------------|
D|3-------1-------|--------1-------|--------3-------|----------------|
A|----------------|4---------------|4---------------|4-------4-------|
E|----------------|----------------|----------------|----------------|

G|----------------|----------------|----------------|----------------|
D|3-------1-------|--------1-------|3-------1-------|--------4-------|
A|----------------|4---------------|----------------|----------------|
E|----------------|----------------|----------------|----------------|

  Chorus
G|----------------|----------------|----------------|----------------|
D|4-------1-------|4---------------|4---------------|4---------------|
A|----------------|--------4-------|--------4-------|--------4-------|
E|----------------|----------------|----------------|----------------|

G|----------------|----------------|----------------|----------------|
D|3-------1-------|----------------|3---------------|----------------|
A|----------------|4-------4-------|--------4-------|----------------|
E|----------------|----------------|----------------|2---------------|
                                                     Hold  
G|----------------|
D|----------------|
A|----------------|
E|----------------|

G|----------------|----------------|----------------|----------------|
D|--------3-1-----|--------3-1-----|--------3-1-----|--------3-1-----|
A|----4-----------|----4-----------|----4-----------|----4-----------|
E|2---------------|2---------------|2---------------|2---------------|

  Verse
G|----------------|----------------|----------------|----------------|
D|3-------1-------|--------1-------|--------3-------|----------------|
A|----------------|4---------------|4---------------|4-------4-------|
E|----------------|----------------|----------------|----------------|

G|----------------|----------------|----------------|----------------|
D|3-------1-------|--------1-------|3-------1-------|--------4-------|
A|----------------|4---------------|----------------|----------------|
E|----------------|----------------|----------------|----------------|

G|----------------|----------------|----------------|----------------|
D|3-------1-------|--------1-------|--------3-------|----------------|
A|----------------|4---------------|4---------------|4-------4-------|
E|----------------|----------------|----------------|----------------|

G|----------------|----------------|----------------|----------------|
D|3-------1-------|--------1-------|3-------1-------|--------4-------|
A|----------------|4---------------|----------------|----------------|
E|----------------|----------------|----------------|----------------|

  Chorus
G|----------------|----------------|----------------|----------------|
D|4-------1-------|4---------------|4---------------|4---------------|
A|----------------|--------4-------|--------4-------|--------4-------|
E|----------------|----------------|----------------|----------------|

G|----------------|----------------|----------------|----------------|
D|3-------1-------|----------------|3---------------|----------------|
A|----------------|4-------4-------|--------4-------|----------------|
E|----------------|----------------|----------------|2---------------|
                                                     Hold  
G|----------------|
D|----------------|
A|----------------|
E|----------------|

G|----------------|----------------|----------------|----------------|
D|--------3-1-----|--------3-1-----|--------3-1-----|--------3-1-----|
A|----4-----------|----4-----------|----4-----------|----4-----------|
E|2---------------|2---------------|2---------------|2---------------|

  Keep repeating the above 4 bars.
            
Submit corrections


        Both Sides Now lessons Hard to play? Try these video lessons and learn fast Both Sides Now lessons
        
↑ Back to top | Tablatures and chords for acoustic guitar and electric guitar, ukulele, drums are parodies/interpretations of the original songs. You may use it for private study, scholarship, research or language learning purposes only