» » »

Judika - Aku Yang Tersakiti Tabs

Artists:  A B C D E F G H I J K L M N O P Q R S T U V W X Y Z # 

Aku Yang Tersakiti Tabs

(ver. 1) Click to play this song!
Judika
 Rating:
4.3/5 (24 votes)

 Aku Yang Tersakiti lessons Tabs too difficult? Try these video lessons and learn fast
 
                [Solo]

    Bb           F        Gm            Cm         G                F
e|---------------------------------------------------------------------------|
B|--------------------------------------10b---10-8---------------------------|
G|--5br--5br----3-5b------5bp3---3~----------------10--12--10----------------|
D|-----------------------------5-------------------------------10/12-10~-----|
A|---------------------------------------------------------------------------|
E|---------------------------------------------------------------------------|

                   Bb                    F                    Gm
e|---------------------------------------------------13~---------------------|
B|--------------------11----11-13/15~----11----11-13----------18b---18b------|
G|----------------/10----10-----------------10-------------------------------|
D|--7br----------------------------------------------------------------------|
A|------8-8------------------------------------------------------------------|
E|---------------------------------------------------------------------------|

                                 Cm             G            F
e|-------------------------------------15-17-18-19-20--22----22br-22-20-18---|
B|--18br---15-----------------15-16-18---------------------------------------|
G|-------------17br--15~---17------------------------------------------------|
D|---------------------------------------------------------------------------|
A|---------------------------------------------------------------------------|
E|---------------------------------------------------------------------------|

e|--17h18p17~----------------------------------------------------------------|
B|---------------------------------------------------------------------------|
G|---------------------------------------------------------------------------|
D|---------------------------------------------------------------------------|
A|---------------------------------------------------------------------------|
E|---------------------------------------------------------------------------|

Cm
Memang takkan mudah...
            
Submit corrections


        Aku Yang Tersakiti lessons Hard to play? Try these video lessons and learn fast Aku Yang Tersakiti lessons
        
↑ Back to top | Tablatures and chords for acoustic guitar and electric guitar, ukulele, drums are parodies/interpretations of the original songs. You may use it for private study, scholarship, research or language learning purposes only