» » »

Judas Priest - You Don Have To Be Old To Be Wise Tabs

Artists:  A B C D E F G H I J K L M N O P Q R S T U V W X Y Z # 

You Don Have To Be Old To Be Wise Tabs

(ver. 1) Click to play this song!
Judas Priest
 Rating:
4/5 (4 votes)


 You Don	 Have To Be Old To Be Wise lessons Tabs too difficult? Try these video lessons and learn fast
 
                JUDAS PRIEST - YOU DON'T HAVE TO BE OLD TO BE WISE
(British Steel, 1980)

Key
= after note = vibrato
^ after note = heavy vibrato 
\ = slide down
/ = slide up
+ = tap
h = hammer
p = pull
n = natural harmonic
s = pinching harmonic (squeal)
* = tremolo pick
t = trill
b = bend
|-3-| = triplet

n number above the tab = play the first part then the first finishing part
			 play the first part a second time and then play the second finishing part
			 etc.

Riff 1

E ---------------------------------------------
B ---------------------------------------------
G -----9---9---7------------9---9---7----7-5---
D -----7---7---5------------7---7---5----5-5---
A -0-0------------------0-0--------------------
E ---------------------------------------------

Riff 1A

E -----5---5---3------------5---5---3----3-2---
B -----5---5---3------------5---5---3----3-3---
G -----2---2---0------------2---2---0----0-2---
D -----------------------------------------0---
A -0-0------------------0-0--------------------
E ---------------------------------------------

Riff 2

E -----------------------------------3---3-2---
B ---------3--------------------3----3---3-3---
G -2-------2------------2-------2----2---2-2---
D -2-------0------------2-------0----0---0-0---
A -0--------------------0----------0---0-------
E ----------------0-3-5------------------------

Riff 3

E ------------------------------------------------------------------------------------
B ------------------------------------------------------------------------------------
G ------------------------------7-------------------------------------------7----5----
D -2-------2------2-3-4-5-------7------------2-------2-------2-3-4-5--------7----5----
A -2-------2------2-3-4-5-------5------------2-------2-------2-3-4-5--------5----3----
E -0-------0------0-1-2-3--------------0-4-3-0-------0-------0-1-2-3------------------

Order

Riff 1 x 2
Riff 1/1A x 4
Riff 2 x 6
Riff 3 x 1
Riff 1/1A x 2
Riff 2 x 4
Riff 3 x 1
Riff 1/1A x 2
Solo over Riff 2 x 4
Riff 3 x 1
Riff 1/1A x 6
Solo over Riff 1/1A until fade
            
Submit corrections



        You Don	 Have To Be Old To Be Wise lessons Hard to play? Try these video lessons and learn fast You Don	 Have To Be Old To Be Wise lessons
        
↑ Back to top | Tablatures and chords for acoustic guitar and electric guitar, ukulele, drums are parodies/interpretations of the original songs. You may use it for private study, scholarship, research or language learning purposes only