» » »

Judas Priest - Feed On Me Tabs

Artists:  A B C D E F G H I J K L M N O P Q R S T U V W X Y Z # 

Feed On Me Tabs

(ver. 1) Click to play this song!
Judas Priest
 Rating:
4/5 (4 votes)

 Feed On Me lessons Tabs too difficult? Try these video lessons and learn fast
 
                <>  pinch harmonic
/ \ slide up or down
b   bend  r-release
Tunning Eb Ab Db Gb Bb Eb (tune ½ step down)

Riff 1                                                      |play only once|
eb|-----------------------------------------------------------|------------|
Bb|-----------------------------------------------------------|------------|
Gb|--------------------------5-----------------------10-9-9---|------------|
Db|-5---5--4--2----5---5--4--5----5--7----2---5-4-2--10-9-9---|-2----------|
Ab|-5---5--4--2----5---5--4--3----5--7----2---5-4-2--8--7-7---|-2----------|
Eb|-3---3--2--0----3---3--2-------3--5----0---3-2-0-----------|-0----------|

Riff 2
eb|--------------------------------------------|
Bb|--------------------------------------------|
Gb|--------------------------------------------|
Db|-3\2--2-2--222--222---3\2-----3\2-----7-----|
Ab|-3\2--2-2--222--222---3\2-----3\2-----7-----|
Eb|-1\0--0-0--000--000---1\0--0--1\0--0--5-----|

Fill (just keep bending and releasing)
eb|---------------------------------|
Bb|-12b--r--b--r--b-b-r--b--r--b----|
Gb|---------------------------------|w/riff 2
Db|---------------------------------|
Ab|---------------------------------|
Eb|---------------------------------|

Riff 3
eb|---------------------------------------------------------------------|
Bb|---------------------------------------------------------------------|
Gb|-10--4---10-4---10--10--4--10-10-4--10--4--10-4---4--10-4--4-10-10-4-|
Db|-10--4---10-4---10--10--4--10-10-4--10--4--10-4---4--10-4--4-10-10-4-|
Ab|-8---2---8--2---8---8---2--8--8--2--8---2--8--2---2--8--2--2-8--8--2-|
Eb|---------------------------------------------------------------------|

Riff 4
eb|----------------------------|
Bb|----------------------------|
Gb|-5---------------------5\4--|
Db|-5--------7-----5-7-9--5\4--|
Ab|-3--------7-----5-7-9--3\2--|
Eb|----------5-----3-5-7-------|

Riff 5
eb|------------------------------|
Bb|------------------------------|
Gb|------------------------------|
Db|------------------------------|
Ab|-4-4-2----5-5-2----442-552----|
Eb|-2-2-0----3-3-0----220-330----|

Riff 6
eb|-----------------------|
Bb|-----------------------|
Gb|-----------------10-10-|4x’s
Db|-----------------10-10-|
Ab|-----------------8--8--|
Eb|-00--00--00--00--------|

Riff 7
eb|--------------------------|
Bb|--------------------------|
Gb|-----------------13\10----|
Db|-22--22--22--22--13\10----|4x’s w/fill
Ab|-22--22--22--22--11\8-----|
Eb|-00--00--00--00-----------|

Riff 8
eb|-----------------|
Bb|-----------------|
Gb|-----------------|
Db|-22--22--22--22--|
Ab|-22--22--22--22--|
Eb|-00--00--00--00--|

Riff 9
eb|----------|
Bb|----------|
Gb|----------|
Db|-5--4--2--|
Ab|-5--4--2--|
Eb|-3--2--0--|

Riff 10
e|---------------------------|
B|---------------------------|
G|---------------------------|
D|-5--5/7--------------------|
A|-5--5/7--<8>0<7>0<3>0<2>0--|
E|-3--3/5--------------------|

Riff 11 (outro)
Gb|----------4--------|
Db|-2--------4--------|w/fill then I think after 4x’s dive gradually w/bar
Ab|-2--------2--------|
Eb|-0-----------------|

if u have this song just listen to it it'll help. have any comments let me know ok?
            
Submit corrections


        Feed On Me lessons Hard to play? Try these video lessons and learn fast Feed On Me lessons
        
↑ Back to top | Tablatures and chords for acoustic guitar and electric guitar, ukulele, drums are parodies/interpretations of the original songs. You may use it for private study, scholarship, research or language learning purposes only