» » »

Judas Priest - Delivering The Goods Tabs

Artists:  A B C D E F G H I J K L M N O P Q R S T U V W X Y Z # 

Delivering The Goods Tabs

(ver. 1) Click to play this song!
Judas Priest
 Rating:
4.2/5 (30 votes)

 Delivering The Goods lessons Tabs too difficult? Try these video lessons and learn fast
 
                BPM: 161
Time: 4/4. Final bar is 2/4

   E.   S  S  S  E.    S  S  S  E    S  S  S S  E   E   S S  E   S S  S S
E|---------------------------------|----9-----------9---------------------|
B|---------------------------------|------12-9-12b-----12-9-----12-9----9-|
G|-11br-9-11p-9-11br---9-11p-9-11b-|-L----------------------11b------11---|
D|---------------------------------|--------------------------------------|
A|---------------------------------|--------------------------------------|
E|---------------------------------|--------------------------------------|

     E     S S  S  E  S  S S  S  S  S  S  S  S     E  S   S   S S E   H
E|---------------------------------------------|--------------------------------|
B|---------------------------------------------|--------------------------------|
G|--11br---L-9-11p-9--9------------------------|------------------9-------------|
D|----------------------11-9-11p-9----11-------|----------------9-9--11~--------|
A|---------------------------------11----11-11-|--10--9h-10h-11-----------------|
E|---------------------------------------------|--------------------------------|

     S S  S S S S S S  S S  S S S S S S     S S  S S S S S S  S S S S S S E
E|--12-9-11-9-9-9-7-9-12-9-11-9-9-9-7-9-|--12-9-11-9-9-9-7-9-11-9-7-9---7----|
B|--------------------------------------|-----------------------------9---9--|
G|--------------------------------------|------------------------------------|
D|--------------------------------------|------------------------------------|
A|--------------------------------------|------------------------------------|
E|--------------------------------------|------------------------------------|

     S  S  S  E.    S  S  E   S S  S S  E      Q.     S  S Q.      E
E|------------------------------------------|--------------------------|
B|--12-12-----------------------------------|--------------------------|
G|--------11-11br---9-11p-9--11-9----9-11b--|--L------9-11-9------14b--|
D|--------------------------------11--------|--------------------------|
A|------------------------------------------|--------------------------|
E|------------------------------------------|--------------------------|

   |--3--|   |---3---|   |------5------|              
     Q     E   E   E   E   S  S   S   S  S  S  S  S  S
E|--------12-------------------------------------------|
B|------------15--12---------12h-15p-12----------------|
G|--12----------------15--14------------14-13----------|
D|--------------------------------------------14-------|
A|-----------------------------------------------12-14-|
E|-----------------------------------------------------|

     S  S  S  S  S  S  S  S  S  S  S  S  Q
E|---------------------------------------------|
B|---------------------------------------------|
G|--12-----------------------------------------|
D|-----14-12----14----12-----------------------|
A|-----------14----14----14-12-13-12-10--------|
E|--------------------------------------12~----|

    |---3---|            |---3---||---3---|      |---3---|      
     S  S  S  S  S  S  S  S  S  S  S  S  S  S  S  S  S  S  E
E|--------------------12----------------------12--------------|
B|-----------12-13-14-------------11-12-13-14----13-15-13-13--|
G|--12-13-14-------------12-13-14-----------------------------|
D|------------------------------------------------------------|
A|------------------------------------------------------------|
E|------------------------------------------------------------|

                                                            |-----3-----|     
     S   S   S     S   E   S  S  E   E   E  E      H          Q     Q     Q
E|---------------------------------------------|--17b--------17----------17----|
B|--12h-14p-12---------------------------------|-------------------15----------|
G|-------------14g15s-14--12-14-12--12s--6--x--|-------------------------------|
D|---------------------------------------------|-------------------------------|
A|---------------------------------------------|-------------------------------|
E|---------------------------------------------|-------------------------------|

  |-----3-----|  |------3------|     
     Q    Q    Q    Q    Q    Q      E   S  S  S  S  S  S  S  S  S  S  S  S  S  S
E|--17b--17b--17b--17b--15b-------|-----14-12----------14-------17-14----14-------|
B|---------------------------15---|--L--------14----14----17-14-------14----17-14-|
G|--------------------------------|--------------16-------------------------------|
D|--------------------------------|-----------------------------------------------|
A|--------------------------------|-----------------------------------------------|
E|--------------------------------|-----------------------------------------------|

                            |---3---|                                         
     S   S  S  S  S  S  S  S  S   S   S  S  S  S   S  E      H
E|------14-----------------------------------------------|-------------||
B|---------17-14----14-------14h-17p-14----14------------|-------------||
G|--16b----------16----17-16------------14----16br-L-14--|-------------||
D|-------------------------------------------------------|--14~--------||
A|-------------------------------------------------------|-------------||
E|-------------------------------------------------------|-------------||            
Submit corrections


        Delivering The Goods lessons Hard to play? Try these video lessons and learn fast Delivering The Goods lessons
        
↑ Back to top | Tablatures and chords for acoustic guitar and electric guitar, ukulele, drums are parodies/interpretations of the original songs. You may use it for private study, scholarship, research or language learning purposes only