» » »

Judas Priest - Bullet Train Tabs

Artists:  A B C D E F G H I J K L M N O P Q R S T U V W X Y Z # 

Bullet Train Tabs

(ver. 1) Click to play this song!
Judas Priest
 Rating:
4/5 (4 votes)

 Bullet Train lessons Tabs too difficult? Try these video lessons and learn fast
 
                
Tuning: Down 1/2 step

Key   ~    = Vibrato
      |pm| = Palm Mute
      ^    = Bend
      (12) = Note pitch to bend to

Intro
|---------------------|
|---------------------|
|-------9~~-----------|
|---------------10----|
|-7---------7~~-----8-|
|----0----------------|

Rhythm 1 (all palm muted)
|---------------------------------|
|---------------------------------|
|---------------------------------|
|---------------------------------|
|---------------------------------|
|-0-0-000-0-0-000-0-0-000-0-0-000-|

Riff 1
|-------------------------------------------------------------------|
|-------------------------------------------------------------------|
|--------------9-------------------------------9---------------9----|
|--------------------------------10---------------------------------|
|-----------------7-----------------8-------------7------8-------7--|
|-0-0-0-0-0-0--------0-0-0-0-0-0-------0-0-0-0-------0-0---0-0------|
  |----pm----|       |----pm----|      |--pm--|      |pm|  |pm|

Riff 2
|-------------------------------------------------|
|-------------------------------------------------|
|-------------------------------------------------|
|-2-----1------1-2-3--------2-----1-----1-2-3-----|
|-2-----1------1-2-3--------2-----1-----1-2-3--3--|
|---0-0---0-0---------0-0-----0-0---0-0--------1--|
    |pm|  |pm|        |pm|    |pm|  |pm|

Verse 
|--------3----5----1----0----1----------3----5----1--|
|-3/5----3----5----1----0----1----3/5---3----5----1--|
|-2/4-----------------------------2/4----------------|
|----------------------------------------------------|
|----------------------------------------------------|
|----------------------------------------------------|

Pre-chorus
|-------------------------|
|-------------------------|
|-------------------------|
|-7------2-------3-----9--|
|-5------0-------1-----7--|
|-------------------------|

Chorus                                           1st     2nd 
|--------------------------------------------|---------|------|
|------------------------------8-------------|---------|------|
|------------------------------10^(12)-------|---------|------|
|-------------------5---2-2--------------2-2-|-----3---|------|
|-5/7---5/7---5/7---3---0-0--------------0-0-|-0-0-1---|-1----|
|-3/5---3/5---3/5----------------------------|---------|---3--|

Riff 3
|-----------------------------------------------------------------|
|-----------------------------------------------------------------|
|-----------------------------------------------------------------|
|-4------2---2-----4-----5---5----4-----2-----4-----2-------------|
|-4------2---2-----4-----5---5----4-----2-----4-----2------4----5-|
|---2-2----2----2----2-2---2----2---2-2---2-2---2-2---2-2--2p0--3-|
    |pm|  pm   pm   |pm-| pm   pm   |pm|  |pm|  |pm|  |pm|

Riff 4
|-------------------|
|-------------------|
|-----9~~-----------|
|-------------10----|
|-7~~-----7~~-----8-|
|-------------------|

Outro
|--------------------------------------|
|--------------------------------------|
|--------------------------------------|
|-3----------------2-3-2-3-2-3---------|
|-1---let ring-----0-1-0-1-0-1---7-7/--|
|--------------------------------5-5/--|

Order:

Intro                  x2
Intro+Rhythm 1         x2
Riff1+Rhythm 1         x2
Riff2+Rhythm 1         x2
Verse+Rhythm 1         x4
Pre-Chorus+Rhythm 1    x1
Chorus                 x2
Riff1+Rhythm 1         x2
Verse+Rhythm 1         x4
Pre-Chorus+Rhythm 1    x1
Chorus                 x2
Riff1+Rhythm 1         x2
Riff2+Rhythm 1         x2
Riff 3                 x6
Riff 4                 x2
Intro+Rhythm 1         x2
Riff1+Rhythm 1         x2
Pre-Chorus+Rhythm 1    x1
Chorus                 x4
Riff2+Rhythm 1         x4
Outro                  x1
            
Submit corrections


        Bullet Train lessons Hard to play? Try these video lessons and learn fast Bullet Train lessons
        
↑ Back to top | Tablatures and chords for acoustic guitar and electric guitar, ukulele, drums are parodies/interpretations of the original songs. You may use it for private study, scholarship, research or language learning purposes only