» » »

Judas Priest - Battle Cry Tabs

Artists:  A B C D E F G H I J K L M N O P Q R S T U V W X Y Z # 

Battle Cry Tabs

(ver. 1) Click to play this song!
Judas Priest
 Rating:
4/5 (4 votes)

 Battle Cry  lessons Tabs too difficult? Try these video lessons and learn fast
 
                Intro
|-----------------|-----------------|
|-----------------|-----------------|
|--9--11--12--11--|--7--11--12--11--|
|-----------------|-----------------|
|--7--9---10--9---|--5--9---10--9---|
|-----------------|-----------------|

Lead To Harmony
|----------------------------------10---|
|-----7--8-----7--8--10-8-10-12-10------|
|--9--------9---------------------------|
|---------------------------------------|
|---------------------------------------|
|---------------------------------------|

Harmony
|--12-0--0--14-0--0--15-0--0--12-0--0--14-0--10-0--|
|--------------------------------------------------|
|--------------------------------------------------|
|--------------------------------------------------|
|--------------------------------------------------|
|--------------------------------------------------|

|--12-0--0--7--0--0--10-0--0--12-0--0--7--0--10-0--|
|--------------------------------------------------|
|--------------------------------------------------|
|--------------------------------------------------|
|--------------------------------------------------|
|--------------------------------------------------|

Main Riff A
|--------------------------------------------------|
|--------------------------------------------------|
|--------------------------------------------------|
|--------------------------------------------------|
|--7--------9--------10-------7--------9-----5-----|
|-----0--0-----0--0-----0--0-----0--0-----0-----0--|

|-----------------------------------------------|
|-----------------------------------------------|
|-----------------------------------------------|
|--------------------------------------4---7----|
|--7--------2--------5--------7--------2---5----|
|-----0--0-----0--0-----0--0-----0--0-----------|

Riff B
|----------------------------------------------------|
|----------------------------------------------------|
|----------------------------------------------------|
|--5--------5--------5--------5--------5-----4-------|
|--3--3--3--3--3--3--3--3--3--3--3--3--3-----2-------|
|----------------------------------------------------|

|----------------------------------------------------|
|----------------------------------------------------|
|----------------------------------------------------|
|--2--------2--------2--------2----------------------|
|--0--0--0--0--0--0--0--0--0--0--0--0--5-----4-------|
|--------------------------------------3-----2-------|

Riff C (Solo Backing)
|----------------------------------------------------|
|----------------------------------------------------|
|----------------------------------------------------|
|--7--9-----9--10----7--9-----7--9-------------------|
|--5--7-----7--8-----5--7-----5--7-------------------|
|--------0--------0--------0--------0--5--6--5--0----|

|----------------------------------------------------|
|----------------------------------------------------|
|-----------7--9-------------------------------------|
|--7--9-----5--7-----7--9-----7--9-------------------|
|--5--7--------------5--7-----5--7-------------------|
|--------0--------0--------0--------0--5--6--5--0----|

Pre-Chorus
|-------|-------|-------|-------|----------|
|-------|-------|-------|-------|----------|
|-------|-------|-------|-------|----------|
|--9----|--7----|-------|-------|--5--4----|
|--7----|--5----|--7----|--5----|--3--2----|
|--0----|-------|--5----|--3----|----------|

|----------------------------|
|----------------------------|
|----------------------------|
|--9--9----------------------|
|--7--7----------------------| x4
|--------0--0--0--0--0--0----|

Chorus
|----------------------------------------------------|
|----------------------------------------------------|
|--5--4----------------------------------------------|
|--------5--------7--5--------7-----9----------------|
|-----------7-----------7-----5-----7----------------|
|--------------0-----------0-----0--------0--0--0----|

|----------------------------------------------------|
|----------------------------------------------------|
|--5--4----------------------------------------------|
|--------5--------7--5--------7-----9-----10---------|
|-----------7-----------7-----5-----7-----8----------|
|--------------0-----------0-----0-----0-------------|

Bridge
|----------------------------------------------------|
|----------------------------------------------------|
|----------------------------------------------------|
|--4--------4--------4--------4--------4-----4-------|
|--2--2--2--2--2--2--2--2--2--2--2--2--2--2--2--2----|
|----------------------------------------------------|

|----------------------------------------------------|
|----------------------------------------------------|
|----------------------------------------------------|
|--4--------4--------4-------------------------------|
|--2--2--2--2--2--2--2--2--2--4--------4-----5-------|
|-----------------------------2--2--2-----2-----2----|

Slow Riff
|----------------|----------------|----------------|----------------|
|----------------|----------------|----------------|----------------|
|----------------|----------------|----------------|----------------|
|----------------|----------------|----------------|----------------|
|-----7--10------|-----7--9-------|-----5--7-------|-----2--5--9----|
|--0-------------|--0-------------|--0-------------|--0-------------|

|-------------------|
|-------------------|
|-------------------|
|--5---4---2--------|
|--3---2---0---5----|
|--------------3----|

Slow Verse/Solo
|-------|-------|-------|-------|-------|----------|-------|
|-------|-------|-------|-------|-------|----------|-------|
|-------|-------|-------|-------|-------|----------|-------|
|-------|--7----|-------|--7----|-------|-----5----|-------|
|--2----|--5----|--2----|--5----|--7----|--5--3----|--2----|
|--0----|-------|--0----|-------|--5----|--3-------|--0----|


Ending
|-------------------------|-------------------------|---------------------------|
|-------------------------|-------------------------|---------------------------|
|-------------------------|-------------------------|---------------------------|
|--7-----9-----10---------|--7-----9-----10---------|--7-----9-----10-9--7--9---|
|--5-----7-----8----------|--5-----7-----8----------|--5-----7-----8--7--5--7---|
|-----0-----0-------------|-----0-----0-------------|-----0-----0---------------|            
Submit corrections


        Battle Cry  lessons Hard to play? Try these video lessons and learn fast Battle Cry  lessons
        
↑ Back to top | Tablatures and chords for acoustic guitar and electric guitar, ukulele, drums are parodies/interpretations of the original songs. You may use it for private study, scholarship, research or language learning purposes only