» » »

Judas Iscariot - Black Eternal Winds Tabs

Artists:  A B C D E F G H I J K L M N O P Q R S T U V W X Y Z # 

Black Eternal Winds Tabs

(ver. 1) Click to play this song!
Judas Iscariot
 Rating:
4.4/5 (7 votes)

 Black Eternal Winds lessons Tabs too difficult? Try these video lessons and learn fast
 
                Verse 1] (0:00-2:53)
e|------------------------------------------------------------------------|
B|------------------------------------------------------------------------|
G|------------------------------------------------------------------------|
D|----2---2-------2-----2---2-------2-----2---2-------2-------------------|
A|--0---0-------0---0-------------------0---0-------0---0---0-3-0---2-3-2-|
E|--------------------4---4-------4---4-------------------1-------3-------|

[Verse 2] (4:31-6:10) [slight tempo increase]
e|------------------------------------------------------------------------|
B|------------------------------------------------------------------------|
G|------------------------------------------------------------------------|
D|----2---2-------2-----2---2-------2-----2---2-------2-------------------|
A|--0---0-------0---0-------------------0---0-------0---0---0-3-0---2-3-2-|
E|--------------------4---4-------4---4-------------------1-------3-------|

e|----------------------------------------------------------------------------|
B|--------------------------------------------------------------1-----0-1-0---|
G|------------------------------------------------------------2---2-0---------|
D|----2---2-------2-----2---2-------2-----2---2-------2-----------------------|
A|--0---0-------0---0-------------------0---0-------0---0---------------------|
E|--------------------4---4-------4---4---------------------------------------|

e|------------------------------------------------------------------------|
B|------------------------------------------------------------1-----1-1-0-|
G|----------------------------------------------------------2-----0-------|
D|----2---2-------2-----2---2-------2-----2---2-------2---3-----3---------|
A|--0---0-------0---0-------------------0---0-------0---0-----------------|
E|--------------------4---4-------4---4-----------------------------------|

e|------------------------------------------------------------------------|
B|------------------------------------------------------------1-----0-1-0-|
G|----------------------------------------------------------2---2-0-------| (repeat this bar for rest
D|----2---2-------2-----2---2-------2-----2---2-------2---3---------------|           of verse)
A|--0---0-------0---0-------------------0---0-------0---0-----------------|
E|--------------------4---4-------4---4-----------------------------------|

[Verse 3] (9:43-end) [slight tempo increase]
e|------------------------------------------------------------------------|
B|------------------------------------------------------------1-----0-1-0-|
G|----------------------------------------------------------2---2-0-------|
D|----2---2-------2-----2---2-------2-----2---2-------2---3---------------|
A|--0---0-------0---0-------------------0---0-------0---0-----------------|
E|--------------------4---4-------4---4-----------------------------------|
Suggest correction What's this?            
Submit corrections


        Black Eternal Winds lessons Hard to play? Try these video lessons and learn fast Black Eternal Winds lessons
        
↑ Back to top | Tablatures and chords for acoustic guitar and electric guitar, ukulele, drums are parodies/interpretations of the original songs. You may use it for private study, scholarship, research or language learning purposes only