» » »

Jra - Handle With Care Tabs

Artists:  A B C D E F G H I J K L M N O P Q R S T U V W X Y Z # 

Handle With Care Tabs

(ver. 2) Click to play this song!
Jra
 Rating:
3.1/5 (7 votes)

 Handle With Care lessons Tabs too difficult? Try these video lessons and learn fast
 
                Song : Handle With Care by JRAquino

Not sure if this is very accurate because i did this by watching and listening, so it 
may not be right. improvise as you wish, but it sounds aboout right ^^

So this is basically just the outline of how to play the song, i'm not sure about the 
slightly different stuff JRA plays but yeah. here it is then :B



~~

Intro and Verse : (play as many times as needed)

e|------------0h2------------0h2----|---------------0------------------------|
B|-------2---------------2----------|-----------0h2-------------0h2----------|
G|-----2---2-----------2---2--------|-------1---------------1-------2--------|
D|---0---------------0--------------|-----2---2-----------2---2--------------|
A|----------------------------------|---0---------------0--------------------|
E|----------------------------------|----------------------------------------|


Pre Chorus :

e|---2----------------2--------------------------------------------------------|
B|---2---x8-----------2---x8---------------------------------------------------|
G|---2-------2--------2--------2------2~---------------------------------------|
D|-----------2---x8------------2---x4-2~---------------------------------------|
A|-----------1-----------------1------1~---------------------------------------|
E|-----------------------------------------------------------------------------|


Chorus :

     v v ^ ^ v ^   v v ^ ^ v ^    v v ^ ^ v ^  v v ^ ^ v ^
e|---0-0-2-2-2-2---0-0-2-2-2-2----0-0-0-0-0-0--0-0-0-0-0-0----------------------|
B|---2-2-2-2-2-2---2-2-2-2-2-2----0-0-0-0-0-0--0-0-0-0-0-0----------------------|
G|---2-2-2-2-2-2---2-2-2-2-2-2----1-1-1-1-1-1--1-1-1-1-1-1----------------------|
D|--------------------------------2-2-2-2-2-2--2-2-2-2-2-2----------------------|
A|---------------------------------------------2-2-2-2-2-2----------------------|
E|------------------------------------------------------------------------------|

~~

Rate and comment~!
            
Submit corrections


        Handle With Care lessons Hard to play? Try these video lessons and learn fast Handle With Care lessons
        
↑ Back to top | Tablatures and chords for acoustic guitar and electric guitar, ukulele, drums are parodies/interpretations of the original songs. You may use it for private study, scholarship, research or language learning purposes only