Home » J » Jovanotti »

Jovanotti - Fango Tabs

Artists:  A B C D E F G H I J K L M N O P Q R S T U V W X Y Z # 

Fango Tabs

(ver. 1) Click to play this song!
Jovanotti
credo che la canzone sia in tonalità di si e tutta suonata su 4 accordi.

B   
Io lo so che non sono solo
anche quando sono solo
G#-7
io lo so che non sono solo
F#
io lo so che non sono solo
anche quando sono solo  E

....

l'arpeggio dell'intro potrebbe assomigliare a qualcosa del genere:

   B                       G#-7                    F#
e------------------------|-----------------------|-----------------------|--
B---------4--------4-----|-----------------------|--------2--------2-----|--
G---------4--------4-----|--------4--------4-----|--------3--------3-----|--
D------4-----4--4-----4--|--------4--------4-----|--------4--------4-----|--
A---2--------------------|-----6-----6--6-----6--|-----4-----4--4-----4--|--
E------------------------|--4--------------------|--2--------------------|--

   E
e------------------------|
B---------0--------0-----|
G---------1--------1-----|
D---------2--------2-----|
A------2-----2--2-----2--|
E---0--------------------|


Spero di essere stato utile...
Tenno
            
Submit corrections

↑ Back to top | Tablatures and chords for acoustic guitar and electric guitar, ukulele, drums are parodies/interpretations of the original songs. You may use it for private study, scholarship, research or language learning purposes only