» » »

Josie And The Pussycats - You're A Star Tabs

Artists:  A B C D E F G H I J K L M N O P Q R S T U V W X Y Z # 

You're A Star Tabs

(ver. 2) Click to play this song!
Josie And The Pussycats
 Rating:
4/5 (4 votes)

 You're A Star lessons Tabs too difficult? Try these video lessons and learn fast
 
                ---------------------------------------------------
          You're A Star- Josie and the Pussycats
---------------------------------------------------
Tuning: regular

  Intro
e|------------------------------------------------|
B|------------------------------------------------|
G|-7-7--------------------------------------------|
D|-7-7--4-4--5-5--5-------------------------------|
A|-5-5--4-4--5-5--5-------------------------------|
E|------2-2--3-3—-3-------------------------------|
  Verse
e|------------------------------------------------|
B|------------------------------------------------|
G|-7---------------------7------------------------|
D|-7-x8-4----5----7------7-x8-4----5----7---------|
A|-5----4-x8-5-x8-7-x8---5----4-x8-5-x8-7-x8------|
E|------2----3----5-----------2----3----5---------|

e|------------------------------------------------|
B|------------------------------------------------|
G|------------------------------------------------|
D|-12----11----9----8----7-7-x-x-x-x-x-x----------|
A|-12-x8-11-x8-9-x8-8-x8-7-7-x-x-x-x-x-x-x2-------|
E|-10-----9----7----6----5-5-x-x-x-x-x-x----------|

e|------------------------------------------------|
B|------------------------------------------------|
G|-7---------------------7------------------------|
D|-7-x8-4----5----7------7-x8-4----5----7---------|
A|-5----4-x8-5-x8-7-x8---5----4-x8-5-x8-7-x8------|
E|------2----3----5-----------2----3----5---------|
  





  Bridge
e|------------------------------------------------|
B|------------------------------------------------|
G|------------------------------------------------|
D|-12----11----9----8----7-7-x-x-x-x-x-x----7-----|
A|-12-x8-11-x8-9-x8-8-x8-7-7-x-x-x-x-x-x-x3-7-----|
E|-10-----9----7----6----5-5-x-x-x-x-x-x----5-----|
  Chorus
e|------------------------------------------------|
B|------------------------------------------------|
G|-7---------------------7------------------------|
D|-7-x8-4----5----7------7-x8-4----5----7---------|
A|-5----4-x8-5-x8-7-x8---5----4-x8-5-x8-7-x8------|
E|------2----3----5-----------2----3----5---------|
  Verse
e|------------------------------------------------|
B|------------------------------------------------|
G|-7---------------------7------------------------|
D|-7-x8-4----5----7------7-x8-4----5----7---------|
A|-5----4-x8-5-x8-7-x8---5----4-x8-5-x8-7-x8------|
E|------2----3----5-----------2----3----5---------|
  Bridge
e|------------------------------------------------|
B|------------------------------------------------|
G|------------------------------------------------|
D|-12----11----9----8----7-7-x-x-x-x-x-x----7-----|
A|-12-x8-11-x8-9-x8-8-x8-7-7-x-x-x-x-x-x-x3-7-----|
E|-10-----9----7----6----5-5-x-x-x-x-x-x----5-----|
  Chorus
e|------------------------------------------------|
B|------------------------------------------------|
G|-7---------------------7------------------------| x4
D|-7-x8-4----5----7------7-x8-4----5----7---------|
A|-5----4-x8-5-x8-7-x8---5----4-x8-5-x8-7-x8------|
E|------2----3----5-----------2----3----5---------|





End on 
e|------------------------------------------------|
B|------------------------------------------------|
G|-7----------------------------------------------|
D|-7----------------------------------------------|
A|-5----------------------------------------------|
E|------------------------------------------------|





| /  slide up
| \  slide down
| h  hammer-on
| p  pull-off
| ~  vibrato
| +  harmonic
| x  Mute note
===================================================
            
Submit corrections


        You're A Star lessons Hard to play? Try these video lessons and learn fast You're A Star lessons
        
↑ Back to top | Tablatures and chords for acoustic guitar and electric guitar, ukulele, drums are parodies/interpretations of the original songs. You may use it for private study, scholarship, research or language learning purposes only