» » »

Joshua Radin - Streetlight Tabs

Artists:  A B C D E F G H I J K L M N O P Q R S T U V W X Y Z # 

Streetlight Tabs

(ver. 1) Click to play this song!
Joshua Radin
 Rating:
4/5 (4 votes)

 Streetlight lessons Tabs too difficult? Try these video lessons and learn fast
 
                INTRO:
        (G)             (C)             (Em)            (D)
e|---------------3---------------3---------------3---------------2-----------|
B|-----------3-------3-------3-------3-------3-------3-------3-------3-------|
G|---------------------------------------------------------------------------|
D|---------------------------------------2---------------0-------------------|
A|-----------------------3---------------------------------------------------|
E|-------3-------------------------------------------------------------------|

VERSE 1: 
e|---------------3---------------3---------------3---------------2-----------|
B|-----------3-------3-------3-------3-------3-------3-------3-------3-------|
G|---------------------------------------------------------------------------|
D|---------------------------------------2---------------0-------------------|
A|-----------------------3---------------------------------------------------|
E|-------3-------------------------------------------------------------------|
            I'll         wait for       something        under a streetlight
                 It      won't   be    long                  because
            It's dark,      it's cold       it's one of those nights where
                 Something out there               keeps me alive 

CHORUS: 
        (C)                             (D)
e|-------3-------------------------------2-----------------------------------|
B|-------3-------------------------------3-----------------------------------|
G|-------0-------------------------------2-----------------------------------|
D|-------2-------------------------------0-----------------------------------|
A|-------3-------------------------------x-----------------------------------|
E|-------x-------------------------------x-----------------------------------|
     But I don't know                         where to go             So I

        (G)             (D)             (Em)
e|-------3---------------2---------------0-----------------------------------|
B|-------3---------------3---------------0-----------------------------------|
G|-------0---------------2---------------0-----------------------------------|
D|-------0---------------0---------------2-----------------------------------|
A|-------2---------------x---------------2-----------------------------------|
E|-------3---------------x---------------0-----------------------------------|
       think I'll sit and    stay here a while

        (Am)                            (C)             (D)
e|-------0-------------------------------3---------------2-------------------|
B|-------1-------------------------------3---------------3-------------------|
G|-------2-------------------------------0---------------2-------------------|
D|-------2-------------------------------2---------------0-------------------|
A|-------0-------------------------------3---------------x-------------------|
E|-------x-------------------------------x---------------x-------------------|
     Till I                   figure it out 

*play chords or finger pick
        (G)             (D)             (Em)            (C)             
e|-------------3---------5-----------5---3-----------3---------3-------------|
B|-------3-----------3---------3---------------3---------1-----------1-------|
G|---------------------------------------------------------------------------|
D|-----------------------0---------------2-----------------------------------|
A|-------------------------------------------------------3-------------------|
E|-------3-------------------------------------------------------------------|
        So                 let the wind       blow       us   to

        (G)             (D)             (Em)            (C)
e|-------3-----------3---5-----------5---3-----------3---------3-------------|
B|-------------3---------------3---------------3---------1-----------1-------|
G|---------------------------------------------------------------------------|
D|-----------------------0---------------2-----------------------------------|
A|-------------------------------------------------------3-------------------|
E|-------3-------------------------------------------------------------------|
      wherever it says                     We are           supposed to go

*fingerpicking continues
(x2)     G               D               Em              C
Last Chorus End on G

VERSE 2: 
        (G)             (C)             (Em)            (D) 
e|-------3-------3-------3-------3-------0-------0-------2-------2-----------|
B|-------3-------3-------3-------3-------0-------0-------3-------3-----------|
G|-------0-------0-------0-------0-------0-------0-------2-------2-----------|
D|-------0-------0-------2-------2-------2-------2-------0-------0-----------|
A|-------2-------2-------3-------3-------2-------2-------x-------x-----------|
E|-------3-------3-------x-------x-------0-------0-------x-------x-----------|
         When you want something but can't name it, It's under a streetlight
         It's something you've never seen before,         Open the door
         
e|-------3---------------3---------------0---------------2-------------------|
B|-------3---------------3---------------0---------------3-------------------|
G|-------0---------------0---------------0---------------2-------------------|
D|-------0---------------2---------------2---------------0-------------------|
A|-------2---------------3---------------2---------------x-------------------|
E|-------3---------------x---------------0---------------x-------------------|
         It's something you've always been afraid of, It's under a streetlight
         And   now       all         you want  is  more 

*CHORUS*

Bridge: 
        (Em)            (C)             (G)             (D)
e|-------0---------------3---------------3---------------2-------------------|
B|-------0---------------3---------------3---------------3-------------------|
G|-------0---------------0---------------0---------------2-------------------|
D|-------2---------------2---------------0---------------0-------------------|
A|-------2---------------3---------------2---------------x-------------------|
E|-------0---------------x---------------3---------------x-------------------|
         I don't        mind         the wait       it's fine
      As long        as you know     it's the wait that could be the something
*rest 8 counts after strumming the last chord

*CHORUS*
            
Submit corrections


        Streetlight lessons Hard to play? Try these video lessons and learn fast Streetlight lessons
        
↑ Back to top | Tablatures and chords for acoustic guitar and electric guitar, ukulele, drums are parodies/interpretations of the original songs. You may use it for private study, scholarship, research or language learning purposes only