» » »

Joshua Radin - Here Lies Tabs

Artists:  A B C D E F G H I J K L M N O P Q R S T U V W X Y Z # 

Here Lies Tabs

(ver. 1) Click to play this song!
Joshua Radin
 Rating:
4/5 (4 votes)

 Here Lies lessons Tabs too difficult? Try these video lessons and learn fast
 
                Hey guys! For all you sims 3 game players, I have just tried to learn the song that
plays under the "songwriter" category. There aren't many tabs out there for the songs. 
It is
so hard to find any! Please contribute if you have any. I don't have it all, but its 
pretty simple, maybe you can finish it. This is what I got...

 Capo 1

---------------|
------3-3------|
------2-2------|     X2
---0-----------|
-----------0---|
---------------|


-------------------------------------------------------------------------|
-----3-3------2-2h3-----3-3-------2-2-------3h5p3-----2-2------3-3-------|
-----2-2------2-2-------2-2-------2-2-------0---0-----2-2------2-2-------|
--0---------------------------------------------------------0------------|
-----------0---------2-----------------------------0------------------0--|
-------------------------------2---------3-------------------------------|

You can add as many repeats as you want. Add a couple hammer-ons and pull-offs and thats
about it.

Thanks,
Dom
            
Submit corrections


        Here Lies lessons Hard to play? Try these video lessons and learn fast Here Lies lessons
        
↑ Back to top | Tablatures and chords for acoustic guitar and electric guitar, ukulele, drums are parodies/interpretations of the original songs. You may use it for private study, scholarship, research or language learning purposes only