» » »

Joshua Radin - Closer Tabs

Artists:  A B C D E F G H I J K L M N O P Q R S T U V W X Y Z # 

Closer Tabs

(ver. 1) Click to play this song!
Joshua Radin
 Rating:
4.6/5 (10 votes)

 Closer lessons Tabs too difficult? Try these video lessons and learn fast
 
                =======================================================================
Band: Joshua Radin
Tuning: Capo: Fret III

h = hammer on
p = pull off
^ = bend
r = release
t = tap
~ = let it ring
/ = slide up
\ = slide down
. = palm mute
+ = harmonic
v = vibrato
()= optional 


=======================================================================

Intro:

         F                 G7               C               C
e|------------------|---------------|---------------|---------------|
B|--1-----1-----1-1-|------0h1--1-1-|---------------|---------------|
G|--2-----2-----2-2-|------0----0-0-|-----0----0----|-----0----0----|
D|--3--3--3--3--3-3-|------0----0-0-|-----2h3--3p2--|-----2h3--3p2--|
A|------------------|------2----2-2-|-3-3-3--3-3----|-3-3-3--3-3----|
E|------------------|-3--3----3-----|---------------|---------------|


          F                G7               C               C
e|------------------|---------------|---------------|---------------|
B|--------1----1-1--|------0h1--1-1-|---------------|---------------|
G|--------0h2--2-2--|------0----0-0-|-----0----0----|-----0----0----|
D|-3---3--3--3-3-3--|------0----0-0-|-----2h3--3p2--|-----2h3--3p2--|
A|------------------|------2----2-2-|-3-3-3--3-3----|-3-3-3--3-3----|
E|------------------|-3--3----3-----|---------------|---------------|

=======================================================================

Verse:
                          
          F                G7               C                C      
e|------------------|---------------|---------------|---------------|
B|--------1----1-1--|------0h1--1-1-|---------------|---------------|
G|--------0h2--2-2--|------0----0-0-|-----0----0----|-----0----0----|
D|-3---3--3--3-3-3--|------0----0-0-|-----2h3--3p2--|-----2h3--3p2--|x2
A|------------------|------2----2-2-|-3-3-3--3-3----|-3-3-3--3-3----|
E|------------------|-3--3----3-----|---------------|---------------|

=======================================================================

Pre-Chorus:
         Am                 G7                C           G7       
e|------------------|------------------|------------|------------|
B|-------1-----1-1--|-------0h1---1-1--|-----1--1---|-----1--1---|
G|-------0h2---2-2--|-------0-----0-0--|-----0--0---|-----0--0---|
D|-------2-----2-2--|-------0-----0-0--|-----2--2---|-----0--0---|
A|-0--0------0------|-------2-----2-2--|--3--3--3---|-----2--2---|
E|------------------|-3--3-----3-------|------------|--3--3--3---|

          F
e|------------------|
B|--------1----1-1--|
G|--------0h2--2-2--|
D|-3---3--3--3-3-3--|x2
A|------------------|
E|------------------|

         Am                 G7                 
e|------------------|------------------|
B|-------1-----1-1--|-------0h1---1-1--|
G|-------0h2---2-2--|-------0-----0-0--|
D|-------2-----2-2--|-------0-----0-0--|
A|-0--0------0------|-------2-----2-2--|
E|------------------|-3--3-----3-------|

=======================================================================

Chorus:

      Am          G7         C               F             
e|----------|----------|------------|------------------|
B|----1-1---|----1-1---|-----1--1---|--------1----1-1--|
G|----2-2---|----0-0---|-----0--0---|--------0h2--2-2--|
D|----2-2---|----0-0---|-----2--2---|-3---3--3--3-3-3--|x3
A|-0--------|----2-2---|--3--3--3---|------------------|
E|----------|-3--------|------------|------------------|

      Am         G7            C
e|----------|----------|---------------|
B|----1-1---|----1-1---|---------------|
G|----2-2---|----0-0---|-----0----0----|
D|----2-2---|----0-0---|-----2h3--3p2--|
A|-0--------|----2-2---|-3-3-3--3-3----|
E|----------|-3--------|---------------|

      Am         G7            C               C
e|----------|----------|---------------|---------------|
B|----1-1---|----1-1---|---------------|---------------|
G|----2-2---|----0-0---|-----0----0----|-----0----0----|
D|----2-2---|----0-0---|-----2h3--3p2--|-----2h3--3p2--|
A|-0--------|----2-2---|-3-3-3--3-3----|-3-3-3--3-3----|
E|----------|-3--------|---------------|---------------|

=======================================================================

Verse:

=======================================================================

Pre-Chorus:

=======================================================================

Chorus:

=======================================================================

Bridge: 

        D            Am           F          C              G7
e|-------------|-------------|----------|----------|------------------|
B|-----3--3-3--|-----1--1-1--|----1-1---|----1-1---|-------0h1---1-1--|
G|-----2--2-2--|-----2--2-2--|----2-2---|----0-0---|-------0-----0-0--|
D|-0--0--0-----|-----2--2-2--|-3--------|----2-2---|-------0-----0-0--|
A|-------------|-0-0---0-----|----------|-3--------|-------2-----2-2--|
E|-------------|-------------|----------|----------|-3--3-----3-------|

        D            Am           F          C          G7
e|-------------|-------------|----------|----------|----------|
B|-----3--3-3--|-----1--1-1--|----1-1---|----1-1---|----1-1---|
G|-----2--2-2--|-----2--2-2--|----2-2---|----0-0---|----0-0---|
D|-0--0--0-----|-----2--2-2--|-3--------|----2-2---|----0-0---|
A|-------------|-0-0---0-----|----------|-3--------|----2-2---|
E|-------------|-------------|----------|----------|-3--------|

       C          G               C               C
e|----------|----------|  |---------------|---------------|
B|-----1-1--|-----0-0--|  |---------------|---------------|
G|-----0-0--|-----0-0--|  |-----0----0----|-----0----0----|
D|-----2-2--|-----0-0--|x3|-----2h3--3p2--|-----2h3--3p2--|
A|--3-------|-----2-2--|  |-3-3-3--3-3----|-3-3-3--3-3----|
E|----------|--3-------|  |---------------|---------------|

=======================================================================

Chorus:

=======================================================================
            
Submit corrections


        Closer lessons Hard to play? Try these video lessons and learn fast Closer lessons
        
↑ Back to top | Tablatures and chords for acoustic guitar and electric guitar, ukulele, drums are parodies/interpretations of the original songs. You may use it for private study, scholarship, research or language learning purposes only