Home » J » Josh Ritter »

Josh Ritter - Edge Of The World Tabs

Artists:  A B C D E F G H I J K L M N O P Q R S T U V W X Y Z # 

Edge Of The World Tabs

(ver. 2) Click to play this song!
Josh Ritter
(Intro)
-----------------------------------------------------------------------------
                             Edge of the World - Josh Ritter
-----------------------------------------------------------------------------

Tuning: Standard (Capo 4th Fret)

e|----0-------0-------------------------------------------------------------|
B|------2--0h2---2-0---0------0-2-0-----------------------------------------|
G|--------2-------------2--2------------------------------------------------|
D|------------------------4-------------------------------------------------|
A|--------------------------------------------------------------------------|
E|--------------------------------------------------------------------------|

    This is my first shot at writing out tabs for a song. Don't be too hard.
I've noticed that there weren't any tabs for this, anywhere! So i decided to
give it a go. I know it's only the first bit of it. If you can help me figure
out the rest of it that'd be awesome. Also, help me figure out where to put
in the bass notes. 

************************************
| /   slide up
| \   slide down
| h   hammer-on
| p   pull-off
| ~   vibrato
| +   harmonic
| x   Mute note
| b   Bend
| pb  Pre-bend
| br  Bend release
| pbr Pre-bend release
| brb Bend release bend

************************************
            
Submit corrections

↑ Back to top | Tablatures and chords for acoustic guitar and electric guitar, ukulele, drums are parodies/interpretations of the original songs. You may use it for private study, scholarship, research or language learning purposes only