Home » J » Jose Gonzalez »

Jose Gonzalez - Every Age Tabs

Artists:  A B C D E F G H I J K L M N O P Q R S T U V W X Y Z # 

Every Age Tabs

(ver. 1) Click to play this song!
Jose Gonzalez
 Rating:
3.3/5 (30 votes)
                Capo 4

[[Verse progression]]
Every age..     ..it's turn   Every branch.. ..to learn
e|------------|-------------|-----------|------------------|
B|------------|-------------|-----------|------------------|
G|---2---2-2-------2---2-2-----2---2-2-------2---2-2-------|
D|---2---2-2-----2h4---4-4-----0---0-0-----0h2---2-2-------|
A|---0---0-0-------0---0-0-----0---0-0-------0---0-0-------|
E|---------------------------------------------------------|


[[Special verse]](4th and 6th)
 Reaping..    ..what time  ..and what we...       ...have sown
e|------------|-------------|-(0)--------------------------|
B|------------|-------------|--3---------------------------|
G|---2---2-2-------2---2-2-----2---6---4---4-4-------2--4--|
D|---2---2-2-----2h4---4-4-----0---0---0---0-0-------2--2--|
A|---0---0-0-------0---0-0-----0---4---2---2-2-------0--0--|
E|---------------------------------------------------------|

For the beat, I mute the top two strings with my knuckles so that the lower strings can ring.


Verse 1 [[Verse progression]]
Every age has its turn
Every branch of the tree has to learn
Learn to grow, find its way,
Make the best of this short-lived stay


Verse 2 [[Verse progression]]
Take this seed, take this spade
Take this dream of a better day
Take your time, build a home
Build a place where we all can belong


Verse 3 [[Verse progression]]
Some things change, some remain
Some will pass us unnoticed by
What to focus on, to improve upon
In the face of our ancient tribes


Verse 4 [[Verse progression]]
Feels so clear, feels so obvious
To each one on their own...
But we are here, together
[[special verse]]
Reaping what time and what we have sown


Verse 5 [[Verse progression]]
We don't choose where we're born
We don't choose in what pocket or form
But we can learn to know
Ourselves on this globe in the void


Verse 6 [[Verse progression]]
Take this mind, take this pen
Take this dream of a better land
Take your time, build a home
[[special verse]]
Build a place where we all... can belong*
            
Submit corrections

↑ Back to top | Tablatures and chords for acoustic guitar and electric guitar, ukulele, drums are parodies/interpretations of the original songs. You may use it for private study, scholarship, research or language learning purposes only