Home » J » Jose Feliciano »

Jose Feliciano - Light My Fire Tabs

Artists:  A B C D E F G H I J K L M N O P Q R S T U V W X Y Z # 

Light My Fire Tabs

(ver. 2) Click to play this song!
Jose Feliciano
                                Light My Fire
                                Jose Feliciano

|-0----0--0--0----------------------------------|
|-1----1--1--1----2-----------------------------|
|-0----0--0--0----2-----2-4p2---2-4p2---2-4p2---|
|-2----2--2--2----4---4-------4-------4-------4-|
|-0----0--0--0----------------------------------|
|-----------------------------------------------|

|-0----0--0--0--------4---2--2------|
|-1----1--1--1----2---2---2--2--2---|
|-0----0--0--0----2---2---2--2--2---|
|-2----2--2--2----4-------------4---|
|-0----0--0--0----------------------|
|-----------------------------------|

|-----------------------------|-----------------------------|
|-0-0-0-0---7-7---7--5--3--2--|-0-0-0-0---7-7---7--5--3--2--|
|-4-4-4-4---6-6---7--6--4--2--|-4-4-4-4---6-6---7--6--4--2--|
|-5-5-5-5---5-5---7--7--4--2--|-5-5-5-5---5-5---7--7--4--2--|
|-----------0-0---5--7--5--0--|-----------0-0---5--7--5--0--|
|-----------------------------|-----------------------------|

|---------------0----|
|-0-0-0-0-------0----|
|-4-4-4-4-------1----|
|-5-5-5-5--4-7--2----|
|---------------2----|
|---------------0----|
            
Submit corrections

↑ Back to top | Tablatures and chords for acoustic guitar and electric guitar, ukulele, drums are parodies/interpretations of the original songs. You may use it for private study, scholarship, research or language learning purposes only