Home » J » Jon Lajoie »

Jon Lajoie - The Best Song Tabs

Artists:  A B C D E F G H I J K L M N O P Q R S T U V W X Y Z # 

The Best Song Tabs

(ver. 2) Click to play this song!
Jon Lajoie
CHORUS:

The wannabe-piano or music box or whatever:
             . . . .           .
   E S E S E E E E E E S E S E E Q.
e|-------------------------------------| \
B|-5-5-5-5-5-5-5-5-5-5-5-5-5-5-5-------| |
G|-5-5-5-5-5-5-5-5-5-5-5-5-5-5-5-------| |
D|-------------------------------------| |
A|-------------------------------------| |
E|-------------------------------------| |
                                         |
The 8-bit-like sounding thing:            \ play this twice
             . . . .           . . .      /
   E.  E.  E E E E E E.  E.  E E E E E | |
e|-------------------------------------| |
B|-------------------------------------| |
G|-------------------------------------| |
D|-2---2---------5-5-2---2-------2-----| |
A|---------5-3-3-------------5-3---3---| |
E|-------------------------------------| /

"Piano":
             . .               .
   E S E S E E E Q   E S E S E E Q.
e|-------------------------------------| \
B|-------------------5-5-5-5-5-5-------| |
G|-2-2-2-2-2-2-2-----5-5-5-5-5-5-------| |
D|-3-3-3-3-3-3-3-----------------------| |
A|-------------------------------------| |
E|-------------------------------------| |
                                         |
8-bit:                                    \ 
                 . .           . . .      /
   Q    E  E Q   E E E.  E.  E E E E E | |
e|-------------------------------------| |
B|-------------------------------------| |
G|-------------------------------------| |
D|-3----3--5-3---3-3-2---3---2-2-5-2---| |
A|-------------------------------------| |
E|-------------------------------------| /

then the first riff once again


VERSE:

Piano:
             . . . .           . . . 
   E S E S E E E E E E S E S E E E E E
e|-------------------------------------| \
B|---5-8-5-----5-8-5---5-8-5---5(8-5)--| |
G|(5)------5-5-------5-------5---------| |
D|-------------------------------------| |
A|-------------------------------------| |
E|-------------------------------------| |
                                         |
                                          \ the notes in brackets
8-bit:                                    / aren't played the first time
  (the "rhythm" always changes)          |
e|-------------------------------------| |
B|-------------------------------------| |
G|-------------------------------------| |
D|-------------------------------------| |
A|-3-3-3-3-3-3-3-3-3-3-3........-------| |
E|-------------------------------------| /


Song structure:

Chorus 1x
Verse riff 8x (1st time without notes in brackets)
Chorus 1x
Verse riff 8x (1st with notes in brackets)
Chorus 1x
Verse riff 6x (only the "piano")
Verse riff 4x (both parts)
Chorus 1x

End on:
e|----------|
B|-5--------|
G|-5--------|
D|----------|
A|----------|
E|----------|            
Submit corrections

↑ Back to top | Tablatures and chords for acoustic guitar and electric guitar, ukulele, drums are parodies/interpretations of the original songs. You may use it for private study, scholarship, research or language learning purposes only