» » »

Joie De Vivre - Tenstopet Tabs

Artists:  A B C D E F G H I J K L M N O P Q R S T U V W X Y Z # 

Tenstopet Tabs

(ver. 1) Click to play this song!
Joie De Vivre
 Rating:
2.6/5 (30 votes)

 Tenstopet  lessons Tabs too difficult? Try these video lessons and learn fast
 
                Tuning: Standard

Intro:
e|--------------3---------------------------3----0h1p0---|
B|-----3/5-1-------5----3h5-1------3/5-1-------5-------1-|
G|---0--------0-------0----------0--------0--------------|
D|-------------------------------------------------------|
A|-3---------------------------3-------------------------|
E|-------------------------------------------------------|

Verse: x2
e|--------------3---------------------------3----0h1p0---|
B|-----3/5-1-------5----3h5-1------3/5-1-------5-------1-|
G|---0--------0-------0----------0--------0--------------|
D|-------------------------------------------------------|
A|-3---------------------------3-------------------------|
E|-------------------------------------------------------|
 |                                                       |
e|-------------------------------------------------------|
B|-1---------------------------1-------------------------|
G|-0---------------------------0-------------------------|
D|-2---------------------------2-------------------------|
A|-3---------------------------3-------------------------|
E|-------------------------------------------------------|

e|--------------3---------------------------3-------------|
B|-----3/5-1-------5----3h5-1------3/5-1-------5----3h5-1-|
G|---0--------0-------0----------0--------0-------0-------|
D|--------------------------------------------------------|
A|-3---------------------------3--------------------------|
E|--------------------------------------------------------|
 |                                                        |
e|--------------------------------------------------------|
B|-1---------------------------1--------------------------|
G|-0---------------------------0--------------------------|
D|-2---------------------------2--------------------------|
A|-3---------------------------3--------------------------|
E|--------------------------------------------------------|

Chorus: x4
e|-----------------------------------------------------------------|
B|-1-1-1-1-1-1-1-1-1-1-1-1-1-1-1-1-1-1-1-1-1-1-1-1-1-1-1-1-1-1-1-1-|
G|-0-0-0-0-0-0-0-0-0-0-0-0-0-0-0-0-2-2-2-2-2-2-2-2-2-2-2-2-2-2-2-2-|
D|-------------------------0-0-2-2-3-3-3-3-3-3-3-3-3-3-3-3-3-3-3-3-|
A|-3-3-3-3-3-3-3-3-3-3-3-3---------3-3-3-3-3-3-3-3-3-3-3-3-3-3-3-3-|
E|-----------------------------------------------------------------|


Outro: x8
e|-----------------------------------------------1p0----|
B|--------1-------1----1-----------1---1-------1-----1--|
G|------------------------------------------------------|
D|----0h2----0h2---------------0h2---------0h2----------|
A|-3---------------3------3--3-----------3--------------|
E|------------------------------------------------------|
 |                                                      |
e|------------------------------------------------------|
B|-3h5---5p3---3/1----------6/5---5/3---3/1---1-1-------|
G|------------------------------------------------------|
D|------------------------------------------------------|
A|------------------------------------------------------|
E|------------------------------------------------------|

e|------------------------------------------------------|
B|--------1-------1----1-----------1---1-----1-----1----|
G|----0h2----0h2--------------0h2----------0------------|
D|-3----------------3-----3-3------------3------3-------|
A|------------------------------------------------------|
E|------------------------------------------------------|
 |                                                      |
e|------------------------------------------------------|
B|-6p5---3h5---3/1----------6/5---5/3---3/1---1-1-------|
G|------------------------------------------------------|
D|------------------------------------------------------|
A|------------------------------------------------------|
E|------------------------------------------------------|

trumpet:
e|------------------------------------8--7----8----|------------------------------------|
B|---5-6-8-----6-5-3--5--1-----5-6-8---------------|---5-6-8----6-5-3--5--6--5----3-----|
G|-------------------------------------------------|------------------------------------|
D|-------------------------------------------------|------------------------------------|
A|-------------------------------------------------|------------------------------------|
E|-------------------------------------------------|------------------------------------|
            
Submit corrections


        Tenstopet  lessons Hard to play? Try these video lessons and learn fast Tenstopet  lessons
        
↑ Back to top | Tablatures and chords for acoustic guitar and electric guitar, ukulele, drums are parodies/interpretations of the original songs. You may use it for private study, scholarship, research or language learning purposes only