» » »

John Prine - Sour Grapes Tabs

Artists:  A B C D E F G H I J K L M N O P Q R S T U V W X Y Z # 

Sour Grapes Tabs

(ver. 1) Click to play this song!
John Prine
 Rating:
4/5 (4 votes)

 Sour Grapes lessons Tabs too difficult? Try these video lessons and learn fast
 
                ----------------------------------------------------------------------------
----------------------------------------------------------------------------


Tuning: Standard (CAPO 3rd Fret)




Verse
e|----------------------2---------0--------3--------2h3--------3--------|
B|----------------3--------3---------0--------0----------0--------0-----|
G|-------------------2--------2---------0--------0----------0-----------|
D|-------------0------------------2-----------------2-------------------|
A|----0--3--5-----------------------------------------------------------|
E|----------------------------------------------------------------------|

e|----0--------0---------2--------2--------2----------2-------|
B|-------2--------2---------3--------3-----3----3--------3----|
G|----------2------------------2--------2--0h2-----2----------|
D|-------------------2---0-----------------0------------------|
A|----0-------------------------------------------------------|
E|------------------------------------------------------------|

e|-----------2---------0--------3--------2h3--------3-----0--------0-------|
B|-----3--------3---------0--------0----------0--------0-----2--------2----|
G|--------2--------2---------0--------0----------0--------------2----------|
D|--0------------------2-----------------2-------------------------------2-|
A|--------------------------------------------------------0----------------|
E|-------------------------------------------------------------------------|

e|--2---------|
B|-----3------|
G|--------2---|
D|--0---------|
A|------------|
E|------------|


Chorus
e|--------------------2-----------------------2-----------2------|
B|-----------3-----------3-----3--------------3-----2-----3------|
G|--------------4-----------4-----4-----------2--------2--2------|
D|--2--0-----------4-----------------------0--------------0------|
A|--------4--2-----------------------2--4--------0---------------|
E|---------------------------------------------------------------|

e|--------------------2--------0--------0--------2--3--------2---|
B|-----------3-----------3--------2--------2-----3-----3-----3---|
G|--------------4-----------4--------2-----------2--0-----0--2---|
D|--2--0-----------4--------------------------0-----0-----0--0---|
A|--------4--2-----------------0---------------------------------|
E|--------------------------------------------------3------------|


(Repeat Verse)
(Repeat Chorus)
(Repeat Verse)
(Repeat Chorus)
(Repeat Verse)
(Repeat Chorus)
            
Submit corrections


        Sour Grapes lessons Hard to play? Try these video lessons and learn fast Sour Grapes lessons
        
↑ Back to top | Tablatures and chords for acoustic guitar and electric guitar, ukulele, drums are parodies/interpretations of the original songs. You may use it for private study, scholarship, research or language learning purposes only