» » »

John Prine - Clay Pigeons Tabs

Artists:  A B C D E F G H I J K L M N O P Q R S T U V W X Y Z # 

Clay Pigeons Tabs

(ver. 1) Click to play this song!
John Prine
 Rating:
4.1/5 (31 vote)

 Clay Pigeons lessons Tabs too difficult? Try these video lessons and learn fast
 
                [Intro]
  G                                 C/G 
e|-------------|--------------------|-----------------|-----------------|
B|-----0-------|--0h1----0----------|-------1---------|-1h3---1---------|
G|0--------0---|--------------0-----|-0----------0----|-----------0-----|
D|---0-------0-|------0---------0---|----2---------2--|-----2-------2---|
A|-------------|--------------------|-----------------|-----------------|
E|3------3-----|--3--------3--------|-3-------3-------|-3-------3-------|

  G                                 D
e|-------------|--------------------|-----------------|-----------------|
B|-----0-------|--0h1----0----------|------0----------|--0h1----0-------|
G|0--------0---|--------------0-----|-2--------2------|-------------2-0-|  
D|---0-------0-|-------0--------0---|----0-------0----|------0----------|  
A|-------------|--------------------|-----------------|-----------------|
E|0h3----3-----|--3--------3--------|-2------2--------|--2--------2-----|


  G                                 C/G 
e|-------------|--------------------|------------------|----------------|
B|-----0-------|--0h1----0----------|---------1--------|--1h3---1-------|
G|0--------0---|--------------0-----|---0----------0---|------------0---|
D|---0-------0-|------0---------0---|------2---------2-|------2-------2-|
A|-------------|--------------------|------------------|----------------|
E|0h3------3---|--3----------3------|---3-------3------|--3-------3-----|


  G                                 D                    D        G  
e|-------------|--------------------|------------------|-------------------------3-|
B|-----0-------|--0h1----0----------|------0-----------|-0h1---------------0-------|
G|0--------0---|--------------0-----|-2--------2-------|-------2-----0---------0---|  
D|---0-------0-|-------0--------0---|----0-------0-----|-----0---------------0-----|  
A|-------------|--------------------|------------------|---------------------------|
E|0h3----3-----|--3--------3--------|-2------2---------|-2--------3------3-------3-|


[Verse]

  G                                 C/G 
e|-------------|--------------------|-----------------|-----------------|
B|-----0-------|--0------0----------|-------1---------|-1-----1---------|
G|0--------0---|--------------0-----|-0----------0----|-----------0-----|
D|---0-------0-|------0---------0---|----2---------2--|-----2-------2---|
A|-------------|--------------------|-----------------|-----------------|
E|3------3-----|--3--------3--------|-3-------3-------|-3-------3-------|

I'm goin' down to the Greyhound Station, gonna buy a ticket to ride

  G                                 D
e|-------------|--------------------|-----------------|-----------------|
B|-----0-------|--0------0----------|------0----------|-0h1-----0-------|
G|0--------0---|--------------0-----|-2--------2------|-------------2---|  
D|---0-------0-|-------0--------0---|----0-------0----|-----0---------0-|  
A|-------------|--------------------|-----------------|-----------------|
E|0h3----3-----|--3--------3--------|-2------2--------|-2--------2------|

Gonna find that lady with two or three kids and sit down by her side

            
Submit corrections


        Clay Pigeons lessons Hard to play? Try these video lessons and learn fast Clay Pigeons lessons
        
↑ Back to top | Tablatures and chords for acoustic guitar and electric guitar, ukulele, drums are parodies/interpretations of the original songs. You may use it for private study, scholarship, research or language learning purposes only