» » »

John Prine - Angel From Montgomery Tabs

Artists:  A B C D E F G H I J K L M N O P Q R S T U V W X Y Z # 

Angel From Montgomery Tabs

(ver. 1) Click to play this song!
John Prine
 Rating:
4.3/5 (26 votes)

 Angel From Montgomery lessons Tabs too difficult? Try these video lessons and learn fast
 
                  [Intro]
   Q=65
   G  C   G  Am   G  Am G       Am            G    Am G    Am
   4/4
   Gtr I (Ac. Gtr.)
   W              H     E  E     S  +S  S S   H.           Q
e|--------------|---------------------------|----------------------||
B|--------------|---------10b12-10-(10)-----|-8--------------------||
G|--------------|-----------------------7h9-|----------------------||
D|--------------|---------------------------|----------------------||
A|--------------|---------------------------|----------------------||
E|--------------|---------------------------|----------------------||
 |
 | Gtr II (Piano arr. for Gtr.)
 | Q  E E Q  Q    Q  Q  Q        Q            Q    Q  Q    Q
e|-3--0-3-3-----|---------------------------|----------------------||
B|-0--1---0--1--|-0--1--0--------1----------|-0----1--0----1-------||
G|-0------0--2--|-0--2--0--------2----------|-0----2--0----2-------||
D|-0--2---0--2--|-0--2--0--------2----------|-0----2--0----2-------||
A|--------------|---------------------------|----------------------||
E|-3------3-----|-3-----3-------------------|-3-------3------------||
 |
 | Gtr III (Ac. Gtr.)
 | W              W                           E. S Q  E. S S S S S
e|--------------|---------------------------|-3-------3------------||
B|--------------|---------------------------|-0----1--0----1-1-1-1-||
G|--------------|---------------------------|-0----0--0----0-0-0-0-||
D|--------------|---------------------------|-0----2--0----2-2-2-2-||
A|--------------|---------------------------|----------------------||
E|--------------|---------------------------|-3--3-3--3--3-3-3-3-3-||


  [1st - 3rd Verses]
     G    C          G       C            G     C       D   C   G    C
                                                      3/8     2/4
    Gtr III
     H    Q  E S S   E. S Q  Q  S S S S   Q  Q  Q  Q    E E E   E. S E E
e||--3-------------|-3--3-3--3--3-3-3-3-|-3--3-----3--|-2-2-0-|-3--------|
B||o-0----1--1-1---|-0--0-0--1--1-1-1-1-|-0--0--1--1--|-3-3-1-|-0----1-1-|
G||--0----0--0-0-0-|-0--0-0--0--0-0-0-0-|-0--0--0--0--|-2-2-0-|-0--0-0-0-|
D||--0----2--2-2-0-|-0----0--2--2-2-2-2-|-0--0--2--2--|-0-0-2-|-0--0-2-2-|
A||o------3--3-3---|---------3--3-3-3-3-|-------3--3--|-----3-|------3-3-|
E||--3-------------|-3----3-------------|-3--3--------|-------|-3--------|


   G    C          G       C            G     C       D   C   G    C
  4/4                                                3/8     2/4
   H    Q  E S S   E. S Q  Q  S S S S   Q  Q  Q  Q    E E E   E. S E E
e|-3-------------|-3--3-3--3--3-3-3-3-|-3--3-----3--|-2-2-0-|-3----------||
B|-0----1--1-1---|-0--0-0--1--1-1-1-1-|-0--0--1--1--|-3-3-1-|-0----1-1---||
G|-0----0--0-0-0-|-0--0-0--0--0-0-0-0-|-0--0--0--0--|-2-2-0-|-0--0-0-0---||
D|-0----2--2-2-0-|-0----0--2--2-2-2-2-|-0--0--2--2--|-0-0-2-|-0--0-2-2---||
A|------3--3-3---|---------3--3-3-3-3-|-------3--3--|-----3-|------3-3---||
E|-3-------------|-3----3-------------|-3--3--------|-------|-3----------||


  [Chorus]
   G          F                  C       G    C/G     G     F
  4/4
  Gtr I
                             ~~~~~~~~
   H          Q  S     +S  S S   +H      H            W
e|-----------------------------|--------------------|-------------|
B|---------------8pb10r(8)-6-8-|-(8)----------------|-------------|
G|-----------------------------|--------------------|-------------|
D|-----------------------------|--------------------|-------------|
A|-----------------------------|--------------------|-------------|
E|-----------------------------|--------------------|-------------|
 |
 | Gtr III
 | E. S E S S Q  E         S S    Q   Q  E. S E S S   Q  Q  Q  Q
e|-3--3-3-----1--1---------1-1-|--------------------|-------1--1--|
B|-0--0-0-0-0-1--1---------1-1-|--1---1-------1-1-1-|-0--0--1--1--|
G|-0--0-0-0-0-2--2---------2-2-|--0---0-----0-0-0-0-|-0--0--2--2--|
D|-0----0-0-0-3--3---------3-3-|--2---2-----0-2-2-2-|-0--0--3--3--|
A|------------3--3---------3-3-|--3---3-------------|-------3--3--|
E|-3----3----------------------|---------3----3-----|-3--3--------|


   C       G       C/G     G         F                  C        G    C
  3/8     2/4             4/4
                                                    ~~~~~~~~
   W       W               H         Q  S     +S  S S   +H       H
e|-------|---------------|----------------------------|--------------------|
B|-------|---------------|--------------8pb10r(8)-6-8-|-(8)----------------|
G|-------|---------------|----------------------------|--------------------|
D|-------|---------------|----------------------------|--------------------|
A|-------|---------------|----------------------------|--------------------|
E|-------|---------------|----------------------------|--------------------|
 |
 | E E E   S S S S S S E   E E E S S Q  Q                Q   E E E. S E E
e|-0-0-0-|-3-3-3-3-0-0-0-|-3-3-3-3-3-1--1-------------|--0---0---3--3-3-3--|
B|-1-1-1-|-0-0-0-0-1-1-1-|-0-0-0-0-0-1--1-------------|--1---1---0--0-1-1--|
G|-0-0-0-|-0-0-0-0-0-0-0-|-0-0-0-0-0-2--2-------------|--0---0-0-0--0-0-0--|
D|-2-2-2-|-0-0-0-0-2-2-2-|-0-0-0-0-0-3--3-------------|--2---2-0-0----2-2--|
A|-3-3-3-|---------------|-----------3--3-------------|--3---3-------------|
E|-------|-3-3-3-3-3-3-3-|-3-3-3-3-3------------------|----------3---------|


                       1.,2.
   G      C             G       C   G               C   G
                3/8    4/4
   Gtr III
   Q  E E H      W      S S S S E E Q  E. S   E S S E E E. S E S S  3x
e|-3--3-3-0----|-----||-3-3-3-3-0-0-3--3--3-|-3-3-3-0-0-3--3-3-3-3--||
B|-0--0-0-1----|-----||-0-0-0-0-1-1-0--0--0-|-0-0-0-1-1-0--0-0-0-0-o||
G|-0--0-0-0----|-----||-0-0-0-0-0-0-0--0--0-|-0-0-0-0-0-0--0-0-0-0--||
D|-0--0-0-2----|-----||-0-0-0-0-2-2-0--0--0-|-0-0-0-2-2-0--0-0-0-0--||
A|--------3----|-----||---------3-3---------|-------3-3------------o||
E|-3--3-3------|-----||-3-3-3-3-----3--3--3-|-3-3-3-----3--3-3-3-3--||


  [Outro]
    3.
     G       C   G               C   G
     S S S S E E Q  E. S   E S S E E E. S E S S  4x
e||--3-3-3-3-0-0-3--3--3-|-3-3-3-0-0-3--3-3-3-3--||
B||o-0-0-0-0-1-1-0--0--0-|-0-0-0-1-1-0--0-0-0-0-o||
G||--0-0-0-0-0-0-0--0--0-|-0-0-0-0-0-0--0-0-0-0--||
D||--0-0-0-0-2-2-0--0--0-|-0-0-0-2-2-0--0-0-0-0--||
A||o---------3-3---------|-------3-3------------o||
E||--3-3-3-3-----3--3--3-|-3-3-3-----3--3-3-3-3--||

            
Submit corrections


        Angel From Montgomery lessons Hard to play? Try these video lessons and learn fast Angel From Montgomery lessons
        
↑ Back to top | Tablatures and chords for acoustic guitar and electric guitar, ukulele, drums are parodies/interpretations of the original songs. You may use it for private study, scholarship, research or language learning purposes only