» » »

Johnny Winter - Memory Pain Tabs

Artists:  A B C D E F G H I J K L M N O P Q R S T U V W X Y Z # 

Memory Pain Tabs

(ver. 1) Click to play this song!
Johnny Winter
 Rating:
4.3/5 (29 votes)

 Memory Pain  lessons Tabs too difficult? Try these video lessons and learn fast
 
                e|---------------------------------------------------------------------------|
B|--------~4-----------------------11----------8-----------------------------|
G|--5-3-5-~3-5---------3----------b13\10--8-10---b8----------10-------8------|
D|--5-3-5----5---x-3h5------------------------------10---8-10-----8-10-------|
A|------------------------b6--3----------------------------------------------|
E|---------------------------------------------------------------------------|

e|---------------------------------------------------------------------------|
B|----------4--x--4--x--4--------------------1------------3h4----------------|
G|--4-------3--x--3--x--3--------------------1h2-----3-3--3h5----------------|
D|--3-------2--x--2--x--2----------------------------3-3---------------------|
A|--4---3---3--x--3--x--3-----3-2-3-----------------------------------1-2-3--|
E|----------------------------------2--1--1-------1--------------2--3--------|

e|-------------------------------------8--------8-----8--------11-8-10-------|
B|--------~4-----------------------------8--b11---b11----11-8----------------|
G|--5-3-5-~3-5---------3-----------b10---------------------------------------|
D|--5-3-5----5---x-3h5-------------------------------------------------------|
A|------------------------b6--3----------------------------------------------|
E|---------------------------------------------------------------------------|

e|---------------8-8-8-------------------------------------------------------|
B|--11-10-8---------------------------1-----------3h4--4---------------------|
G|-----------b10-------10--8----------1h2----3-3--3h5--5---------------------|
D|---------------------------10\-------------3-3-----------------1-3---------|
A|---------------------------------------------------------x-1-3-------------|
E|---------------------------------1-------1---------------------------------|

e|---------------------------------------------------------------------------|
B|--1-------1-------------3h4------------------------------------------------|
G|--1h2-----1h2------3-3--3h5--------------0h3p0h3p0h3p0h3p0h3p0h3p0h3p0h3p0-|
D|-------------------3-3-----------------------------------------------------|
A|---------------------------------1-2-3-------------------------------------|
E|-------1-------1-------------2-3-------------------------------------------|

e|---------------------------------------------------------------------------|
B|---------------------------------------------------------------------------|
G|--b3--b3--0-------------3-----------------0--------------------------------|
D|-------------3-1--------3---------b3-1--3---b1-----------------------------|
A|------------------3-1-3----3-1-3---------------3-1-3------1-3--------------|
E|-----------------------------------------------------1-3-------1-2-3-------|

e|---------------------------------------------------------------------------|
B|--3----3--3----3----3--2-----1------1--------------3h4---------------------|
G|--2----2--2----2----2--1-----0------1h2-----3-3----3h5---------------------|
D|--3----3--3----3----3--2-----1--------------3-3----------------------------|
A|--2-2--2--2-2--2-2--2--1--0--0-------------------x----------1-2-3----------|
E|---------------------------------1-------1--------------2-3----------------|            
Submit corrections


        Memory Pain  lessons Hard to play? Try these video lessons and learn fast Memory Pain  lessons
        
↑ Back to top | Tablatures and chords for acoustic guitar and electric guitar, ukulele, drums are parodies/interpretations of the original songs. You may use it for private study, scholarship, research or language learning purposes only