» » »

Johnny Winter - Im Yours And Im Hers Bass

Artists:  A B C D E F G H I J K L M N O P Q R S T U V W X Y Z # 

Im Yours And Im Hers Bass

(ver. 1) Click to play this song!
Johnny Winter
 Rating:
3.7/5 (26 votes)

 Im Yours And Im Hers  lessons Tabs too difficult? Try these video lessons and learn fast
 
                
178 BPM
                                      x3
G|-------------------------------------|-------------------------------------| 
D|---7----7----7----7---5--------------|---5-5--5-5--5----5-5--5-5--5--------|
A|------------------------7-5----------|-------------------------------------|
E|-5----5----5----5-----------8-5-3h5--|-5--------------5--------------------|
                                                                            
G|---------------------------------------------------------------------------| X4
D|-7-7-7-7-7----7--5---------------------------------------------------------|
A|-------------------7-5--------------3----5--3------------------------------|
E|------------5----------7-5-3--5--5-----5------5--3--5----------------------|

G|-7-7-7-7-7--7-7--5---------------------------------------------------------|
D|-------------------7-5--------------------------3--3-5---------------------|
A|-----------------------8-5-3--5--5--5--5-3--4-5----------------------------|
E|---------------------------------------------------------------------------|

G|---------------------------------------------------------------------------|
D|-7-7-7-7-7----7--5---------------------------------------------------------|
A|-------------------7-5--------------3----5--3------------------------------|
E|------------5----------7-5-3--5--5-----5------5--3--5----------------------|

G|---------------------------------------------------------------------------|
D|---5----5----5----5--7-5---------------------------------------------------|
A|-------------------------7--5----------------------------------------------|
E|-5----5----5----5----------------------------------------------------------|
                                                                            
G|---------------------------------------------------------------------------| X2
D|-7-7-7-7-7----7--5---------------------------------------------------------|
A|-------------------7-5--------------3----5--3------------------------------|
E|------------5----------7-5-3--5--5-----5------5--3--5----------------------|

G|-7-7-7-7-7--7-7--5---------------------------------------------------------|
D|-------------------7-5--------------------------3--3-5---------------------|
A|-----------------------8-5-3--5--5--5--5-3--4-5----------------------------|
E|---------------------------------------------------------------------------|

G|---------------------------------------------------------------------------|
D|-7-7-7-7-7----7--5---------------------------------------------------------|
A|-------------------7-5--------------3----5--3------------------------------|
E|------------5----------7-5-3--5--5-----5------5--3--5----------------------|

G|---------------------------------------------------------------------------|
D|---5----5----5----5--7-5---------------------------------------------------|
A|-------------------------7--5----------------------------------------------|
E|-5----5----5----5----------------------------------------------------------|

G|---------------------------------------------------------------------------|
D|-7-7-7-7-7----7--5---------------------------------------------------------|
A|-------------------7-5--------------3----5--3------------------------------|
E|------------5----------7-5-3--5--5-----5------5--3--5----------------------|

Guitar Solo:                            Last three:
G|-------------------------------------|-------------------------------------|
D|---7----7----7----7---5--------------|---7----7----7--5--------------------|
A|------------------------7-5----------|------------------7-5----------------|
E|-5----5----5----5-----------8-5-3----|-5----5----5----------8-5-3h5--------|

G|---------------------------------------------------------------------------|
D|---5-5--5-5--5---5-5--5-5--5-----------------------------------------------|
A|---------------------------------------------------------------------------|
E|-5-------------5-----------------------------------------------------------|

G|---------------------------------------------------------------------------| X4
D|-7-7-7-7-7----7--5---------------------------------------------------------|
A|-------------------7-5--------------3----5--3------------------------------|
E|------------5----------7-5-3--5--5-----5------5--3--5----------------------|

G|-7-7-7-7-7--7-7--5---------------------------------------------------------|
D|-------------------7-5--------------------------3--3-5---------------------|
A|-----------------------8-5-3--5--5--5--5-3--4-5----------------------------|
E|---------------------------------------------------------------------------|

G|---------------------------------------------------------------------------|
D|-7-7-7-7-7----7--5---------------------------------------------------------|
A|-------------------7-5--------------3----5--3------------------------------|
E|------------5----------7-5-3--5--5-----5------5--3--5----------------------|

G|---------------------------------------------------------------------------|
D|---5----5----5----5--7-5---------------------------------------------------|
A|-------------------------7--5----------------------------------------------|
E|-5----5----5----5----------------------------------------------------------|

G|---------------------------------------------------------------------------|
D|-7-7-7-7-7----7--5---------------------------------------------------------|
A|-------------------7-5--------------3----5--3------------------------------|
E|------------5----------7-5-3--5--5-----5------5--3--5----------------------|

                                      x3
G|-------------------------------------|-----------------------------------------------| 
D|---7----7----7----7---5--------------|---5-5--5-5--5---5-5--5-5--5---5-5--5-5--5-7---|
A|------------------------7-5----------|-----------------------------------------------|
E|-5----5----5----5-----------8-5-3h5--|-5-------------5-------------5-----------------|            
Submit corrections


        Im Yours And Im Hers  lessons Hard to play? Try these video lessons and learn fast Im Yours And Im Hers  lessons
        
↑ Back to top | Tablatures and chords for acoustic guitar and electric guitar, ukulele, drums are parodies/interpretations of the original songs. You may use it for private study, scholarship, research or language learning purposes only